A Clean Break

Talking Heads

--0---0------------|

--0---1---0--------|
--0---0---2--------|
--2---2---1--------|
--2---3---2--------|
--0----------------|

 AmGmDCF
--5---3-----------1--|
--5---3---7---5---1--|
--5---3---7---5---2--|
--7---5---7---5---3--|
--7---5---5---3---3--|
--5---3-----------1--|


Intro lead:

 EmCB7
--12-----12--12--12--12--12--12--12--12--12--12--12------|
--15b17h-17h-17h-17h-17h-17h-17h-17h-17h-17h-17h-17ub15--|
-------------------------------------------------tremolo-|pick
---------------------------------------------------------|
---------------------------------------------------------|
---------------------------------------------------------|


Verse/Chorus:

 EmCB7
 Just beginning to take that love away
 EmCB7
 Just beginning to take that love away
 EmCB7EmCB7EmCB7
 In a minute I'll wash that love awaaaaaaaaaaaaaaaaay       

 EmCB7
 Even now we remember what we used to say
 EmCB7
 Takes a minute to wash that love away
 EmCB7EmCB7EmCB7
 Take a clean break: wash that love awaaaaaaaaaaaaaay       

 EmCB7
 Even now we remember what we used to say
 EmCB7
 Even now we remember what we used to say
 EmCB7EmCB7EmCB7
 We'll be together if we wash that love awaaaaaaaaaay       

Bridge:

 AmGmAm
 What's tha matter ?    
 AmGmAm
 Have to clean up ?     
 CD
   That's true
 CD
   That's true
 AmGmAm
 And it's taken         
 AmGmAm
 To extreme extent      
 CD
   That's why we
 CD
   Work so hard to
 F
 Take that love away
 F
 Take that love away
 F
 Take that love away
 F
 Take that love away

--5---5-5---7---7-7------------------------------------------------|
--5---5-5---7---7-7------------------------------------------------|
--5---5-5---7---7-7------------------------------------------------|
--5---5-5---7---7-7---7-7-7-7-7-7-7-7-7-7-7-7-7-7------------------|
----------------------slowly bend a whole step---------------------|
-------------------------------------------------------------------|
--5---5-5---7---7-7---15--12---------------------------------------|
--5---5-5---7---7-7-----------15--12-------------------------------|
--5---5-5---7---7-7-------------------12---------------------------|
--5---5-5---7---7-7------------------------------------------------|
-------------------------------------------------------------------|
--5---5-5---7---7-7---x-x-x-15-x-15---x-x-x-15-x15-----------------|
--5---5-5---7---7-7---x-x-x-15-x-15---x-x-x-15-x15-----------------|
--5---5-5---7---7-7------------------------------------------------|
--5---5-5---7---7-7------------------------------------------------|
-------------------------------------------------------------------|


This song is so excellent. I cant believe that Ive never been able to find an accurate
of it


Am B7 C D Em F Gm
variations - click chord images
Transpose chords:
Tuning:
Cool service:
View: Size:
A  A  A
Rating:
Layout:
  • Currently 2/5 Stars.
  • 1
  • 2
  • 3
  • 4
  • 5
 
Accuracy:
  • Currently 2.3/5 Stars.
  • 1
  • 2
  • 3
  • 4
  • 5
 
click stars to rate
Chordie recommends:
Learn how to play guitar at JamPlay.com
Songbook:
Login to add this song to your songbook
Support the artist
Preview/buy this song
MSN Music
Why this non-profit ad?

 
login to add comments/video/corrections