Guitar Tabs, Chords and Lyrics


Livid   Tallman



TALLMAN - www.tallman.org
This song was tabbed by Adam Muirhead (madaemanon@yahoo.com).

Drop D (DADGBe)

The song starts off with bass and drums.
Paul plays a palm muted riff going into the first riff.
This is what he plays:

e-----x-------x-------x-|
B-----x-------x-------x-|
G-----x-------x-------x-|
D-0-0-x-0-0-0-x-0-0-0-x-|-3-5-3-1-3-0-|
A-0-0---0-0-0---0-0-0---|-3-5-3-1-3-0-|
D-0-0---0-0-0---0-0-0---|-3-5-3-1-3-0-|
      ^       ^       ^ strike the strings above the nut.

RIFF A (Chorus Riff)
D-1-3-5--5-5-3-1--1-1-3-5--5-6-5-3-5-0-|
A-1-3-5--5-5-3-1--1-1-3-5--5-6-5-3-5-0-|
D-1-3-5--5-5-3-1--1-1-3-5--5-6-5-3-5-0-|
this is a tricky riff to play, this probably isn't correct either.

RIFF B
D-5*--------5*----5-6-6-|
A-5*--------5*----5-6-6-|
D-5*--------5*----5-6-6-|
                       . 

Important: The song above is NOT stored on the Chordie server. The original song is hosted at www.guitaretab.com. Chordie works as a search engine and provides on-the-fly formatting. Chordie does not index songs against artists'/composers' will. To remove this song please click here.

This song is displayed as text-only. Transposing and tuning is only available for chordpro-songs.

Login - add to songbook

Rating click stars to rate

Layout
Accuracy

Jango Player

SHARE PAGE  




You need to log in to post comments