Spring And A Storm

Tally Hall

 AF#mAF#m
 One time I tried to sing about spring and a storm
 AF#mAF#m
But you know,     how it goes   
 DDm
Blah blah blah blah blah blah, blah-blah-blaaah
 AF#m
All along   
 DDmAF#mAF#m
Won't you pleeeease stop complaining? I'm playing a song          
 AD--DmAD--Dm
But all the rain comes down the same   falling to from where it came
 ADDmAF#mAF#m
On the ground then back around up into the sky           

Verse 2:

 AF#mAF#m
I wish you could've heard the music, when the clouds growled overhead
 AF#mADm
I finally felt enthusiastic, I finally felt alive
 DDm
Blah blah blah blah blah blah, blah-blah-blaaah
 AF#mAF#m
So you said               
 DDmAF#mAF#m
Would it pleeeease you to listen, to thunder instead?          
 AD--DmAD--Dm
Man the rain came down that day    and it drained my soul away
 ADDmADF
And I wondered why I even bothered to try      

 ADEDADEFAF#m

Verse 3:
 AF#mAF#m
Mr. Moon,    tell us about the sky    
 AF#mAF#m
The sky...is deep..and dark...and eternally high   
 ADDmA
Many people think that's where you go when you die
 F#m
Do you?
 AD--Dm
Well I think you return to obscure
 ADE
Or wherever you were, before you were
 ADDmAD--Dm
But I won't let you lose yourself in the rain
 ADDm
We have so much left to sing there's a storm for every spring  
 ADDmADDm
All you see and you and me became from a star     
 ADEADF
You're a star,      You're a star      

Ending:

A D E D(repeat till key change to C)<>
Voice 1: You're a star (Repeat till the end)

A D E D A D E D (3x)
e|------------5-----------5--|-----------5-7---------------|
B|-----5----7-----9-----7----|-----5---7-----9-------------|
G|---6----7-----9---8-7------|---6---7---------9-10-7------|
D|-7-------------------------|-7----------------------9-7--|
A|---------------------------|-----------------------------|
E|---------------------------|-----------------------------|


Voice 2: Silent explosive and silent explosive and.. (repeat till end) (on 3)

Voice 3:
 CFGF
Create until nothing is left to create and
 CFGF
The universe bursts with an overworked sigh then
 CFGF
Pretend to pretend to re-crown the creation and
 CFGF
Sing the same thing 'til the clouds start to cry and then
 CFGF
 Over and over and over again and then
 CF
 Over and over and
 Fm
Never again

Ending Notes:

 CCC2FFmFm
e|----0-----0----------0---------------------------0-------------1------------------1--|
B|------1-----1---1------1-------------------------1---------------3----------------1--|
G|--------0-----0----------0-----------------------0-----------2-----2---------1----1--|
D|---------------------------2-----------0---0-----0---------3---------3-----3------3--|
A|--3---------------3----------3---3---3---3---3---3-------3---------------3--------3--|
E|-------------------------------3---2-------------------1---------------1----------1--|


*****
Play along with chords at beginning and throughout:

 AF#m
e||----9-------9----------|----9-------9------------||
B||------10------10---10--|------10------10----10---||
G||*-9------9-------9-----|-11------11------11-----*||
D||*----------------------|------------------------*||
A||-----------------------|-------------------------||
E||-----------------------|-------------------------||


Play during the "Blah-blah's"
 DDm
e|----10-------10------------|----10-------10-----------|
B|-------10-------10-----10--|-------10-------10----10--|
G|-11-------11-------11------|-10-------10-------10-----|
D|---------------------------|--------------------------|
A|---------------------------|--------------------------|
E|---------------------------|--------------------------|


And this during the "But all the rain"
 ADDm
e|---9-------9----------|----10-------10-----------|
B|-----10------10---10--|-------10-------10----10--|
G|-9------9-------9-----|-11-------10-------10-----|
D|----------------------|--------------------------|
A|----------------------|--------------------------|
E|----------------------|--------------------------| 				



A C C2 D Dm E F F#m Fm G
variations - click chord images
Transpose chords:
Tuning:
Cool service:
View: Size:
A  A  A
Rating:
Layout:
  • Currently 1.9/5 Stars.
  • 1
  • 2
  • 3
  • 4
  • 5
 
Accuracy:
  • Currently 3/5 Stars.
  • 1
  • 2
  • 3
  • 4
  • 5
 
click stars to rate
Chordie recommends:
Learn to play songs at Jamplay.com with video guitar lessons
Songbook:
Login to add this song to your songbook
Support the artist
Preview/buy this song
MSN Music
Why this non-profit ad?

 
login to add comments/video/corrections