eToCache5 = ""; ?> Officially Missing You by Tamia - guitar chords, guitar tabs and lyrics - chordie

Officially Missing You

Tamia

 D7sus-
 Gmaj7F#mB7
All I hear is raindrops, falling on the rooftop
 Em7Dm7G
 Oh baby, tell me why'd you have to go
 Cmaj7Bm7
'Cause this pain I feel, it won't go away
 AmD7sus
And today I'm officially missing you
 Gmaj7F#mBEm7
    I thought that from this heartache, I could escape 
 Dm7GCmaj7
But I've fronted long enough to know
 Bm7
There ain't no way
 AmD7
And today I'm officially missing you

 Gmaj7F#mBEm7
 Ooh, can't nobody do it like you  
 Dm7GCmaj7
Said every little thing you do,    hey, baby
 Bm7
Said it stays on my mind
 Amd
And I-I'm officially...
 Gmaj7F#mB
All I do is lay around, two years full of tears
 Em7Dm7G
From looking at your face on the wall          
 Cmaj7Bm7Em7
Just a week ago you were my baby    
 Amd
Now I don't even know you at all, I don't know you at all

E----3~----3-2~--|--3-3~--------|
B----3~----3-3~3-|--3-3~----3-0-|
G----------------|----------0-0-|
D----------------|--------------|
A-3~-3----2--2~--|--------------|
E----------------|-0--0----3--3-|
E--3-0~----2~h3~-|-3~~-----33~~-|
B--3-0~----3~-3~-|-1~~-----33~~-|
G----------------|--------------|
D----------------|-------0------|
A-3--3----2------|-0------------|
E-------------0--|--------------|


 Gmaj7F#mB
Well I wish that you would call me right now
 Em7Dm7G
So that I could get through to you somehow      
 Cmaj7Bm7
But I guess it's safe to say baby safe to say
 Amd
That I'm officially missing you

 Gmaj7F#mBEm7
 Ooh, can't nobody do it like you  
 Dm7GCmaj7
Said every little thing you do,    hey, baby
 Bm7
Said it stays on my mind
 Amd
And I-I'm officially...

Don't know the name for these chords but this is how the bridge goes
E-3~-----------|---------------|
B-1~--0~-h3~---|-3~-3~-3~--3-0-|
G-0~--0~--0~---|-0~-0~-0~--0-0-|
D-2~--2~--0~---|-2~-0~-0~--0-2-|
A-0~--2~--2~---|-3~-2~-2~--2-2-|
E-----0~--3~---|-------3~--3-0-|
E--------------|-3~-3---x-3-3--|
B-1~-3~--1---3-|-3~-----x-3-3--|
G-0~-0~--0-0-0-|-0~-----x------|
D-2~-0~--2-0-2-|-2~--0--x-0-0--|
A-0~-2~--0-2-2-|-3~3----x------|
E----------3---|---------------|


Well, I thought I could just get over you, baby
But I see that's something I just can't do
From the way you would hold me
To the sweet things you told me
I just can't find a way to let go of you

 Gmaj7F#mBEm7
 Ooh, can't nobody do it like you  
 Dm7GCmaj7
Said every little thing you do,    hey, baby
 Bm7
Said it stays on my mind
 Amd
And I-I'm officially...


Am B B7 Bm7 Cmaj7 D7 D7sus Dm7 Em7 F#m G Gmaj7
variations - click chord images
Transpose chords:
Tuning:
Cool service:
View: Size:
A  A  A
Rating:
Layout:
  • Currently 2.7/5 Stars.
  • 1
  • 2
  • 3
  • 4
  • 5
 
Accuracy:
  • Currently 2.9/5 Stars.
  • 1
  • 2
  • 3
  • 4
  • 5
 
click stars to rate
Chordie recommends:
Learn how to play guitar at JamPlay.com
Songbook:
Login to add this song to your songbook
Support the artist
Preview/buy this song
MSN Music
Why this non-profit ad?

 
login to add comments/video/corrections