Insistor

Tapes N Tapes

 C7AminE7DminFmaj7Dmin(add9
e|--0-----0-----0-----1-----0-----0-----|
B|--1-----1-----3-----3-----1-----3-----|
G|--3-----2-----1-----2-----2-----2-----|
D|--2-----2-----0-----0-----3-----3-----|
A|--3-----0-----2-----x-----x-----x-----|
E|--x-----x-----0-----x-----x-----x-----|


 Intro/Verse Riff

|-------------------------------------------------|-------------------------------------------------|
|--0--1-----0--0--1-----0--0--1-----0--1--0--1--0-|--0--1-----0--0--1-----0--0--1-----0--1--0--1--0-|
|--0--2-----0--0--2-----0--0--2-----0--2-----2----|--0--2-----0--0--2-----0--0--2-----0--2-----2----|
|--0--2-----0--0--2-----0--0--2-----0--2-----2----|--0--3-----0--0--3-----0--0--3-----0--3-----3----|
|-------------------------------------------------|-------------------------------------------------|
|-------------------------------------------------|-------------------------------------------------|
|-------------------------------------------------|-------------------------------------------------|
|-----3-----3-----3-----3-----3-----3-----3-----3-|--0--1-----0--0--1-----0--0--1-----0--1--0--1--0-|
|-----1-----1-----1-----1-----1-----1-----1-----1-|--0--2-----0--0--2-----0--0--2-----0--2-----2----|
|-----0-----0-----0-----0-----0-----0-----0-----0-|--0--2-----0--0--2-----0--0--2-----0--2-----2----|
|--2--2--2--2--2--2--2--2--2--2--2--2--2--2--2--2-|-----0-----------0-----------0--------0-----0----|
|-------------------------------------------------|-------------------------------------------------|


 Verse

 Amin
 Kelly the insistor
 Fmaj7
Your brother is a blister
 E7Amin
 I'll be had if I'm in your dress tonight

When you go and you're all alone
Are you still afraid of home
Do you lie in bed with fright

Your father said I lost her
Your brother said I fought her
But I stood still and I'm in your arms tonight

 Cborus (strum cbords

 C7Amin
 And when you rush I'll call your name
 Dmin
Like Harvard Square holds all inane
 Fmaj7Dmin(add9Fmaj7
And don't you know I'll be your badger              
 C7Amin
 And don't be terse and don't be shy
 Dmin
Just hug my lips and say good lies
 Fmaj7Dmin(add9Fmaj7
And know that I will be your bail bond              

 Verse

Mickey the ol' lithper
Said hey there hey mister
My cold razor's edge will meet you in the light

When you go and you're on stage
Is your heart still filled with rage?
Do you still fight for lover's rights?

Challenge is for lovers
But when I run my feet hurt
So I'll stay here and fight for lover's rights

 Cborus

 C7Amin
 And when you rush I'll call your name
 Dmin
Like Harvard Square holds all inane
 Fmaj7Dmin(add9Fmaj7
And don't you know I'll be your badger              
 C7Amin
 And don't be terse and don't be shy
 Dmin
Just hug my lips and say good lies
 Fmaj7Dmin(add9Fmaj7
And know that I will be your bail bond              

 Post Cborus
 E
 Breakdown

Oh Kelly don't you go
Kelly don't you go
Kelly don't you go
I want you to know
That I've been trying, I've been lying
I've been stealing, I've been hiding
I will meet you in the grave
Kelly, Kelly, it's not your right
To be cheating, fighting and starting life
When my head and hands are tied to you so tight
Oh Kelly just tell me one more thing
Is it mine or is it some other ring
That you wear as we lie in bed tonight?

And Kelly, who's the logger?
Oh, Kelly, who's the logger?
Oh Kelly, who's the logger who's trees were felled with might?
And Kelly, hold your water
Oh Kelly, hold your water
Oh Kelly, Kelly, hold your water tight

 Cborus

 C7Amin
 And when you rush I'll call your name
 Dmin
Like Harvard Square holds all inane
 Fmaj7Dmin(add9Fmaj7
And don't you know I'll be your badger              
 C7Amin
 And don't be terse and don't be shy
 Dmin
Just hug my lips and say goodbye
 Fmaj7
Goodbye, goodbye, goodbye, goodbye, goodbye
 Amin
Goodbyebyebyebyebyebyebyebyebye

Tabbed by Will Murdoch, June 2006
wsmurdoch@gmail.com


Amin C7 Dmin E E7 Fmaj7
variations - click chord images
Transpose chords:
Tuning:
Cool service:
View: Size:
A  A  A
Rating:
Layout:
  • Currently 3/5 Stars.
  • 1
  • 2
  • 3
  • 4
  • 5
 
Accuracy:
  • Currently 3/5 Stars.
  • 1
  • 2
  • 3
  • 4
  • 5
 
click stars to rate
Chordie recommends:
Get acoustic guitar lessons and electric guitar lessons at JamPlay.com
Songbook:
Login to add this song to your songbook
Support the artist
Preview/buy this song
MSN Music
Why this non-profit ad?

 
login to add comments/video/corrections