Chordie logo

Bloodstain   Tat



ACE Song. I'd tab more if I had the songs *hint hint* email at the bottom;)

Intro:
e:---------------------------|
B:---------------------------|
G:---------------------------| [X2]
D:6-68986----69----686--998--|
A:-------97-7---9-9---9----9-|
E:---------------------------|

Verse:
e:66-77-9 9 -69--------------------------|
B:66-77-9 9 -69--------------------------|
G:77-88-1010-710-------------------------| [X8 but on the 8th time
D:88-99-1111-811 stop at the first '7789-|
A:---------------------------------------|  and wack on the distorion ready]
E:---------------------------------------|

Pre Chorus:
e:--------|
B:--------|
G:6-6-6-6-|
D:6-6-6-6-|
A:4-4-4-4-|
E:--------|

Chorus:
e:--------------------------------------------|
B:--------------------------------------------|
G:-88-88-88-------------------------11--------| [X2]
D:-88-88-88-99-99-99-1111-1111-1111-1111-1111-|
A:-66-66-66-99-99-99-1111-1111-1111-9 11-1111-|
E:----------77-77-77-9 9 -9 9 -9 9 ---9 -9 9--|

CHORUS X2 With the Intro played over the top
VERSE
PRE-CHORUS
CHORUS X4
CHORUS X2 With the Intro played over the top

Bridge:
e:--5577----5577------- - - - ----- - - -
B:00----7700----77--881010- - --881010- ---|
G:--------------------- - 1010----- - 1010-| [X2 with distortion
D:----------------88--- - - - 88--- - - -   I think]
A:--------------------- - - - ----- - - -
E:--------------------- - - - ----- - - -

INTRO X2
CHORUS until end...can't be arsed counting:p LAZY TABBER!
Az The Spaz


Important: The song above is NOT stored on the Chordie server. The original song is hosted at www.guitaretab.com. Chordie works as a search engine and provides on-the-fly formatting. Chordie does not index songs against artists/composers will. To remove this song please click here.

This song is displayed as text-only. Transposing and tuning is only available for chordpro-songs.

Login - add to songbook

Rating click stars to rate

Layout
Accuracy

SHARE PAGE  

You need to log in to post comments