Guitar Tabs, Chords and Lyrics


Glass Vase Cello Case   Tattle Tale



This is just a way to play the fingerpicking part that the other versions don't include. 
They're correct with the chord progression (which I will list here), but it doesn't 
sense to play the fingerpicking that is tabbed out in the other versions.


The fingerpicking that repeats throughout most of the song is this:

e|-----------------------------------|
B|-----------------------------------|
G|-----0-----0---------7-----7-------|
D|---9-----9-----0---0-----0-----0---|
A|-7-----7-----7---9-----9-----9-----|
E|-----------------------------------|

e|-----------------------------------|
B|-----------------------------------|
G|-----------------------------------|
D|-----0-----0---0-----0-----0---0---|
A|---9-----9---------9-----9---------|
E|-7-----7-----7---8-----8-----8-----|


You can also play it like this (the second part is the same):

e|-------------------------------------|
B|-------------------------------------|
G|-----0-----0----------7-----7--------|
D|---9-----9----------0-----0----0-----|
A|-7-----7-----7----9-----9-----9------|
E|---------------10--------------------|

e|-----------------------------------|
B|-----------------------------------|
G|-----------------------------------|
D|-----0-----0---0-----0-----0---0---|
A|---9-----9---------9-----9---------|
E|-7-----7-----7---8-----8-----8-----|


These are the chords played in the song:

e|-7-----------3-----2--|
B|-8-----5-----3-----3--|
G|-9-----5-----0-----2--|
D|-9-----5-----0-----0--|
A|-7-----3-----2-----0--|


Important: The song above is NOT stored on the Chordie server. The original song is hosted at www.guitaretab.com. Chordie works as a search engine and provides on-the-fly formatting. Chordie does not index songs against artists'/composers' will. To remove this song please click here.

This song is displayed as text-only. Transposing and tuning is only available for chordpro-songs.

Login - add to songbook

Rating click stars to rate

Layout
Accuracy

SHARE PAGE  




You need to log in to post comments