Creeping Up Slowly

Taxiride

 F133211
 C       032010
G? 320010
 G#466544
Intro.

E--------------------|--------------------|
B-----1---------1----|-----1---------1----|
G----0---------0-----|----0---------0-0---|
D-2h3-------2h3------|-2h3-------2h3---3--|
A--------------------|--------------------|
E--------------------|--------------------|
E--------------------|---------------------|
B-----1---------1----|-----1---------1---1-|
G----0---------0-----|----0---------0----0-|
D-2h3-------2h3------|-2h3-------2h3-----2-|
A--------------------|---------------------|
E--------------------|---------------------|


Verse

Am Em F G? Am Em F G?
Let's kick on back to the places we know
Am Em F G? Am Em F G?
The path isn't set, yet your life is unsure

PreChorus
 CCFF
So you're running in circles got a bug in your head
Am Am G? G?
Feel the needles and pins get em out of my head
 CC
Take a chance on a rumor
 FF
 Heard from a bet
Am G? C
That something is gonna change

Chorus
 CFC
 Yeah, It's creeping up slowly
 FC
She's taking me over
 FCF
It's turning me on       
 CFC
With every breath that I take
 FAm
roll up my dreams
G? C
And blow them away

VERSE 2
Am Em F G? Am Em F G?
Cruisin on blue street my worries are freed
Am Em F G? Am Em F G?
Stressed out and dinned out i know exactly what you need

PRECHOURUS:
 CCFF
Got ya life wrapped up in the palm of your hand
Am Am G? G?
Try to feel without feel but ya can't understand
 CCFF
No you won't be satisfied

Till you see
Am G? C
That something is gonna change

Chorus
 CFC
 Yeah, It's creeping up slowly
 FC
She's taking me over
 FCF
It's turning me on       
 CFC
With every breath that I take
 FAm
roll up my dreams
G? C
And blow them away

BRIDGE
 FFFFG#
     Rip it up and turn the page
 G#G#G#C
 Slip through the cracks in the stage
 F
    And you will find me there
 FFFG
 The person knows that upon your face
 C
That your gonna change

Intro

Prechorus

Chorus x 2
Prechorus x 2


Am C F G G#
variations - click chord images
Transpose chords:
Tuning:
Cool service:
View: Size:
A  A  A
Rating:
Layout:
  • Currently 2.9/5 Stars.
  • 1
  • 2
  • 3
  • 4
  • 5
 
Accuracy:
  • Currently 2.2/5 Stars.
  • 1
  • 2
  • 3
  • 4
  • 5
 
click stars to rate
Chordie recommends:
Get acoustic guitar lessons and electric guitar lessons at JamPlay.com
Songbook:
Login to add this song to your songbook
Support the artist
Preview/buy this song
MSN Music
Why this non-profit ad?

 
login to add comments/video/corrections