White Horse

Taylor Swift

 GCadd9EmD
e|--3---3----3----2--------------------|

B|--3---3----3----3--------------------|
G|--0---0----0----2--------------------|
D|--0---2----2-------------------------|
A|--2---3----2-------------------------|
E|--3----------------------------------|

 Fmaj7D/F#
e|---0--------------------------------|

B|---1---------3----------------------|
G|---2---------2----------------------|
D|---3---------0----------------------|
A|-------------0----------------------|
E|-------------2----------------------|

capo 5

 GCadd9EmCadd9
 G
 say you're sorry
 Cadd9
that face of an angel
 EmCadd9
comes out just when you need it to
 GCadd9
 as I paced back and forth all this time
 EmCadd9
'cause I honestly believed in you
 Em
 holding on
 Cadd9
the days drag on
 D
stupid girl,
I should have known, I should have known

 GEm
I'm not a princess, this ain't a fairytale
 Cadd9
I'm not the one you'll sweep off her feet,
 D
lead her up the stairwell
 GEm
this ain't Hollywood, this is a small town,
 Cadd9D
I was a dreamer before you went and let me down
 EmD/F#
now it's too late for you
 Cadd9G
and your white horse, to come around

 G
 maybe I was naive,
 Cadd9
 got lost in your eyes
 EmCadd9
and never really had a chance
 GCadd9
 my mistake I didn't know to be in love
 EmCadd9
you had to fight to have the upper hand
 Em
I had so many dreams
 Cadd9
about you and me
 D
happy endings, now I know

 GEm
I'm not a princess, this ain't a fairytale
 Cadd9
I'm not the one you'll sweep off her feet,
 D
lead her up the stairwell
 GEm
this ain't Hollywood, this is a small town,
 Cadd9D
I was a dreamer before you went and let me down
 EmGmaj7
now it's too late for you
 Cadd9G
and your white horse, to come around

 GEmCadd9D
                                    
 EmGmaj7Cadd9
 and there you are on your knees,
 GDCadd9
 begging for forgiveness, begging for me
 GDCadd9Fmaj7
 just like I always wanted but I'm so sorry

sorry..
e|-------0--------0-------------------|

B|-----1---1------1-------------------|
G|---2---------0--0-------------------|
D|-3---------3----3-------------------|
A|------------------------------------|
E|------------------------------------|

'cause I'm not your
princess.. / this ain't a .. / i'm gonna find.. /actually treat..
e |------------------------------------------------3------3------------2-----|

B |------3-----3-------------3------3----------------------------------3-----|
G |--------------------------------------------------------------------2-----|
D |---------------------------------------------2------2------2--------------|
A |---2----2-----2-------2------2-----2------3------3------3-----------------|
E |-3----3-----3-------0------0------0---------------------------------------|

 GEm
'cause I'm not your princess, this ain't a fairytale
 C
I'm gonna find someone someday who might
 D
actually treat me well
 GEm
this is a big world, that was a small town
 CD
there in my rearview mirror disappearing now
 EmD/F#
and it's too late for you
 C
and your white horse,
 EmD/F#CG
now its too late for you and your white horse, to catch me now


Corrected by wahwah666. View original
C Cadd9 D D/F# Em Fmaj7 G Gmaj7
variations - click chord images
Transpose chords:
Tuning:
Cool service:
View: Size:
A  A  A
Rating:
Layout:
  • Currently 3.2/5 Stars.
  • 1
  • 2
  • 3
  • 4
  • 5
 
Accuracy:
  • Currently 3.2/5 Stars.
  • 1
  • 2
  • 3
  • 4
  • 5
 
click stars to rate
Chordie recommends:
Check out JamPlay.com for online video guitar lessons
Songbook:
Login to add this song to your songbook
Support the artist
Preview/buy this song
MSN Music
Why this non-profit ad?

 
login to add comments/video/corrections

danna (report comment to admin):
Thank yu so much!it's gr8