Guitar Tabs, Chords and Lyrics


Release   Tea Party



I've been looking for this one for years, but everything I found was wrong.
I finally figured it out. (thank you Beer ;-) Enjoy  BDAHL

The chords are constant, most of the song is AM and that F-type chord (sorry,
 no formal theory). The End/chorus is the same, simply replace the Am with a C

Tea Party - Release
Standard Tuning

E-0-----------------0-------------------0-----|
B-1-----------------1-------------------1-----|
G-2-----------------2-------------------2-----|
D-2-----------------3-------------------2-----|
A-0-----2-----3-----3-------2-----3-----0-----|
E---------------------------------------------|

I want the world to wake...

strum these chords
E-0---------0-------------------------|
B-1---------1-------------------------|
G-2---------2-------------------------|
D-2---------3-------------------------|
A-0---------3-------------------------|
E-------------------------------------|

"Don't wanna (Am) hurt you, I need to (F?) make you see"


Here is the lick to match the ending
E-----------------s5--3-3------3h5--3---------------------|
B---3h5--3-----------------------------5--3-------------1-|
G-----------5--2-----------------------------5--7----s2---|
D---------------------------------------------------------|
A---------------------------------------------------------|
E---------------------------------------------------------|


Important: The song above is NOT stored on the Chordie server. The original song is hosted at www.guitaretab.com. Chordie works as a search engine and provides on-the-fly formatting. Chordie does not index songs against artists'/composers' will. To remove this song please click here.

This song is displayed as text-only. Transposing and tuning is only available for chordpro-songs.

Login - add to songbook

Rating click stars to rate

Layout
Accuracy

SHARE PAGE  




You need to log in to post comments