Guitar Tabs, Chords and Lyrics


Bazaar  Tea Party

|------------------|-----------------------------------------------------|


|------------------|-----------------------------------------------------|


|-12----9----11----|------12----11-7--11-12~~-11-9--11-12---11-12--11-12-|

|-x-----x----x--11-|------x-----x--x--x--x-------------------------------|
|-10----7----9--x--|------10----9--7--9--10~~-9--7--9--10---9--10--9--10-|
|---------------9--|-----------------------------------------------------|
[                     riff 1                           ] 
|------------------------------------------------------------------------|
|------------------------------------------------------------------------|
|------------------------------------------------------------------------|
|------------------------------------------------------------------------|
|-9-9-9-9--9-11-7--7-9-6-------------------------------------------------|
|------------------------9---7-7-7-5-7-9--5-5-5-5-5-4-2------------------|



[                 riff 2                     ] 
|------------------------------------------------------------------------|
|------------------------------------------------------------------------|
|------------------------------------------------------------------------|
|------------------------------------------------------------------------|
|--------------------7-7-7-7--7-9-6--6-7-6-4~~---------------------------|
|-7-7-7-7-77-5-7-9-------------------------------------------------------|



[                  riff 3                     ] 
|------------------------------------------------------------------------|
|------------------------------------------------------------------------|
|------------------------------------------------------------------------|
|------------------------------------------------------------------------|
|------------------------------------------------------------------------|
|-7-7-7-77-5-7-9--7-7-7-7-5-7-9--5-5-5-5-5-4-2---------------------------|
|-------------------------------------------------------------------------|
|-------------------------------------------------------------------------|
|-------------------------------------------------------------------------|
|-------------------------------------------------------------------------|
|-------------------------------------------------------------------------|
|-------------------------------------------------------------------------|

for the verses, strum the chords when they are written and let them ring.
for better results, play power chords or barre chords.

INTRO
Riff 1 2x
Riff 2
Riff 3

[F#]Silence swimming in a pool of dreams

Beneath its depths the forgotten streams
[F#]Above, the city of the evening star

Behind its walls, the grand bazaar
[C#]As she walks through its [D]endl[B]ess [C#]maze
[B]Cursing those who mistru[B#]st h[A]er [B]ways
[F#]Please my friend no matter what she sees

Tell my lover come back to me
[play riff 1 bere 2x] 

[F#]Doorways spilling out their sombre light

Casting shadows that will raid the night
[F#]Along the alleys of her ruling fears

Walk the visions that will cause her tears
[C#]Lying still as she wi[D]lls [B]her [C#]glance
[B]Through the eyes of a [B#]charm[A]er's [B]trance
[F#]Please my friend no matter what she sees

Tell my lover come back to me
[play riff 1 again. 2x] 
[play riff 2] 
[play riff 3] 

Bridge: play the intro over those lyrics

And on the walls
Shadows play
Twilight souls
Anguished ways
Lost adrift
Severed seas
I await you
Come to me

Important: The song above is NOT stored on the Chordie server. The original song is hosted at www.guitaretab.com. Chordie works as a search engine and provides on-the-fly formatting. Chordie does not index songs against artists'/composers' will. To remove this song please click here.

Text color:
Chord color:
Chord grids: 
Font size:    
Page size: 

A B C# D F#
variations - click chord images

Login - add to songbook

Transpose chords

Tuning

Rating click stars to rate

Layout
Accuracy

SHARE PAGE  




You need to log in to post comments