eToCache5 = ""; ?> Silence by Tea Party - guitar chords, guitar tabs and lyrics - chordie

Silence

Tea Party



|-----------------|

|-8-6--8-6--8-6-8-|

|-0-0--0-0--0-0-0-|

|-0-0--0-0--0-0-0-|

|-0-0--0-0--0-0-0-|

|-----------------|

|-----------------------------------------------|

|-0-1/4--3-3-3-3-3-3-3---3/6-4-3--1-1-1-1-1-1-1-|

|-0-0-0--0-0-0-0-0-0-0---0---0-0--0-0-0-0-0-0-0-|

|-0-0-0--0-0-0-0-0-0-0---0---0-0--0-0-0-0-0-0-0-|

|-0-0-0--0-0-0-0-0-0-0---0---0-0--0-0-0-0-0-0-0-|

|-----------------------------------------------|

|-----------------------------------------------|

|-0-1/4--3-3-3-3-3-3-3---0-1-0--0-0-0-0-0-0-0-0-|

|-0-0-0--0-0-0-0-0-0-0---0-0-1--1-1-1-1-1-1-1-1-|

|-0-0-0--0-0-0-0-0-0-0---0-0-0--0-0-0-0-0-0-0-0-|

|-0-0-0--0-0-0-0-0-0-0---0-0-0--0-0-0-0-0-0-0-0-|

|-----------------------------------------------|

|-3/5-3--3-3-3-3-3--------|

|-0---0--0-0-0-0-0--------|

|-0---0--0-0-0-0-0--------|

|-3/5-3--3-3-3-3-3--3-3/5-|

|-0---0--0-0-0-0-0--------|

|-------------------3-3/5-|

|-3/5-2--2-2-2-2-2--------|

|-0---0--0-0-0-0-0--------|

|-0---0--0-0-0-0-0--------|

|-3/5-2--2-2-2-2-2--3-3/6-|

|-0---0--0-0-0-0-0--------|

|-------------------3-3/6-|

|---------------------|

|-5h6-6-6--3-3-3-3--0-|

|-0---0-0--0-0-0-0--0-|

|-0---0-0--0-0-0-0--0-|

|-------------------0-|

|---------------------|

|-9-9-9-9-10-9-7-5-3-7-9--9-9-9-9-9-9-|

|-0-0-0-0--0-0-0-0-0-0-0--0-0-0-0-0-0-|

|-0-0-0-0--0-0-0-0-0-0-0--0-0-0-0-0-0-|

|-9-9-9-9-10-9-7-5-3-7-9--9-9-9-9-9-9-|

|-0-0-0-0--0-0-0-0-0-0-0--0-0-0-0-0-0-|

|-------------------------------------|

|-9-9-9-9-10-9-7-5-3-7-5--5-5-5-5-5-5-|

|-0-0-0-0--0-0-0-0-0-0-0--0-0-0-0-0-0-|

|-0-0-0-0--0-0-0-0-0-0-0--0-0-0-0-0-0-|

|-9-9-9-9-10-9-7-5-3-7-5--5-5-5-5-5-5-|

|-0-0-0-0--0-0-0-0-0-0-0--0-0-0-0-0-0-|

|-------------------------------------|

|-0--0-0-0-0--2--2-2-2-2--3--3-3-|

|-0--0-0-0-0--0--0-0-0-0--0--0-0-|

|-0--0-0-0-0--0--0-0-0-0--0--0-0-|

|-0--0-0-0-0--2--2-2-2-2--3--3-3-|

|-0--0-0-0-0--0--0-0-0-0--0--0-0-|

|--------------------------------|

------------------------------------------------------------------------

-----------------------


(4 times)
 BbGBbGFG
d|-------------------|
A|-------------------|
G|o-3-0-0-3-0-0---0-o|
D|o-3-0-0-3-0-0-3-0-o|
A|--3-0-0-3-0-0-5-0--|
E|--------------3----|

VERSE:
 G
 (Strum these)
d|------------------|-----------------|-----------------|------------------|
A|---2---3---6---5--|--8---6---5---3--|--2---3---6---5--|--2---3---0-------|
G|o--0---0---0---0--|--0---0---0---0--|--0---0---0---0--|--0---0---0------o|
D|o--0---0---0---0--|--0---0---0---0--|--0---0---0---0--|--0---0---0------o|
A|------------------|-----------------|-----------------|------------------|
E|------------------|-----------------|-----------------|------------------|

Si-lent spirit watch me for me with her beauty and with her eyes
Heaven help me I feel I'm fading I should rest here for a while
(INTRO riff again)
VERSE riff over
In the springtime I'm awakened as my spirits sieze the night
Heaven help me I'm foresaken I should rest here for a while
BRIDGE:
(For the beginning, just improvise by playing assorted notes on the B (A)
string and the two lower ones open (like the verse), but remember to keep
them in scale-just fool around with it).
(4 times)
 G
d|---9---9---9---9-10--|-9----------------------|
A|--10--10--10--10-10--|10-12-10--8---12---10---|
G|o--0---0---0---0--0--|-0--0--0--0----0----0--o|
A|o-(0)-(0)-(0)-(0)(0)-|(0)(0)(0)(0)--(0)--(0)-o|
D|---------------------|------------------------|
E|---------------------|------------------------|

(I don't know the lyrics. Anyone?)
(8 times)
d|------------------|
A|--5-----7-----8---|
G|o-0-----0-----0--o|
A|o-0-----0-----0--o|
D|------------------|
E|------------------|

 -
    In    si -  lence
In si - lence
si - lence
INTRO riff
VERSE 1 again
INTRO riff twice over
 -
 In silence
In silence
silence!
                                -------

Well, that's my interpretation.
Corrections/lyrics are requested. Anyone want to take the time to type
out the lyrics of the rest of the songs from the CD liner? (I don't have it)
From: sc.kramer@technet.iaf.nl
Date: Sat, 19 Aug 95 10:14:26
Subject: lyr:silence.tab (Tea Party)
SILENCE by THE TEA PARTY
Here are the lyrics (please append to SILENCE.TAB by Krist Smith) :
Silent spirit walks before me
With her beauty and with her eyes
Heaven help me
I feel I'm fading
I should be rest here
For a while
In the dreamtime I'm awakened
As my senses seize the night
Heaven help me
I'm forsaken
I should rest here
For a while
And lie in the bed you've made ophelia
Dry are the lips that lost their taste of love
Drown in the waters that would give you life
Cry as this lamentation thrusts its knife
In silence
In silence
SILENCE

Bb F G
variations - click chord images
Transpose chords:
Tuning:
Cool service:
View: Size:
A  A  A
Rating:
Layout:
  • Currently 3.3/5 Stars.
  • 1
  • 2
  • 3
  • 4
  • 5
 
Accuracy:
  • Currently 3.4/5 Stars.
  • 1
  • 2
  • 3
  • 4
  • 5
 
click stars to rate
Chordie recommends:
Get acoustic guitar lessons and electric guitar lessons at JamPlay.com
Songbook:
Login to add this song to your songbook
Support the artist
Preview/buy this song
MSN Music
Why this non-profit ad?

 
login to add comments/video/corrections