Chordie logo


Raoul And The Kings Of Spain   Tears For Fears



E--------------------------------------------------------------------|
A-7--------9-------3--------5----------------------------------------|
D---9--------11-------5--------7-------------------------------------|
G---9--------11-------5--------7-------------------------------------|
B--------------------------------------------------------------------|
e--------------------------------------------------------------------|
This riff is played in the beginning, chorus, and at the end where Roland picks some 
notes. But you'll have to listen to the song to get the rhythm.

E--7--5--3--2--3--5--7--9--12-----------------------------------------|
A--9--7--5--4--5--7--9--11-14-----------------------------------------|
D--------------------------14-----------------------------------------|
G--11-9--7--6--7--9--11--13-------------------------------------------|
B---------------------------------------------------------------------|
e---------------------------------------------------------------------|
This part is the part where he goes to the acoustic sound. Again, you'll have to listen 
the song to get the rhythm. You will ahve to leave some space in between the chords and 
play them in quater-note pattern.


E---------------------------------------------------------------------|
A-7-------9-------10----------12--------------------------------------|
D----9------11--------12----------14----------------------------------|
G----9------11--------12----------14----------------------------------|
B---------------------------------------------------------------------|
e---------------------------------------------------------------------|
This is the part before Roland goes into the acoustic part.



Important: The song above is NOT stored on the Chordie server. The original song is hosted at www.guitaretab.com. Chordie works as a search engine and provides on-the-fly formatting. Chordie does not index songs against artists/composers will. To remove this song please click here.

This song is displayed as text-only. Transposing and tuning is only available for chordpro-songs.

Login - add to songbook

Rating click stars to rate

Layout
Accuracy

SHARE PAGE  




You need to log in to post comments