Guitar Tabs, Chords and Lyrics


Take It Or Leave It   Ted Nugent



                        Take it or leave it-Ted Nugent
I only tabbed out the rhythm but fell free to tab out the solo if you can

Intro:
E----------|      play this in time with the song until he says “take it”
B----------|
G----------|
D---2-2-2--|
A---0-0-0--|
E----------|


Chorus:
E----------------------|
B----------------------|
G----------------------|
D-9-9-7-7--------------|
A-7-7-5-5- --5-5-7-7---|
E------------3-3-5-5---|

Verse:
E--------------------|
B--------------------|
G--------------------|      play this for the whole verse then go back to the chorus
D-- 5-5/7-7-7--------|
A-- 5-5/7-7-7--------|


Important: The song above is NOT stored on the Chordie server. The original song is hosted at www.guitaretab.com. Chordie works as a search engine and provides on-the-fly formatting. Chordie does not index songs against artists'/composers' will. To remove this song please click here.

This song is displayed as text-only. Transposing and tuning is only available for chordpro-songs.

Login - add to songbook

Rating click stars to rate

Layout
Accuracy

SHARE PAGE  




You need to log in to post comments