Chordie logo

20 Below   Teen Idols



-------------------------------------------------------------------------------
			     20 Below - Teen Idols
-------------------------------------------------------------------------------
Tabbed by: EggNoggy
Email: Eggnoggy69@aol.com

Tuning:Standard

Intro(0:00-0:16)
(palm muted)
e|---------------------------------------------------------------------------|
B|---------------------------------------------------------------------------|
G|----------5------3------5--------------------------------------------------|
D|---3------5-x16--3-x16--5-x16----------------------------------------------|
A|---3-x16--3------1------3--------------------------------------------------|
E|---1-----------------------------------------------------------------------|

Pre-Verse(0:17-0:26)
e|---------------------------------------------------------------------------|
B|---------------------------------------------------------------------------|
G|-------5---3---5-3---------------------------------------------------------|
D|---3---5---3---5-3---------------------------------------------------------|
A|---3---3---1---3-1---------------------------------------------------------|
E|---1-----------------------------------------------------------------------|

Verse(0:27-0:43)
e|---------------------------------------------------------------------------|
B|---------------------------------------------------------------------------|
G|-------5---3---5-3---------------------------------------------------------|
D|---3---5---3---5-3---------------------------------------------------------|
A|---3---3---1---3-1---------------------------------------------------------|
E|---1-----------------------------------------------------------------------|

Chorus(0:44-1:01)
e|---------------------------------------------------------------------------|
B|---------------------------------------------------------------------------|
G|--7----------------10--9--7-----------5--3-5-------------------------------|
D|--7---7---8---10---10--9--7---7---8---5--3-5-------------------------------|
A|--5---7---8---10----8--7--5---7---8---3--1-3-------------------------------|
E|------5---6----8--------------5---6----------------------------------------|
& that's the song!
~~~~~~~~~~~~~~~~~~~~~~~~~~~~~~~~~~~~~~~~~~~~~~~~~~~~~~~~~~~~~~~~~~~~~~~~~~~~~~
Here's the order:

Intro x2
Pre-verse x2
Verse x2
Chorus
Riff x2
Verse x2
Chorus
Into (until fades away)
~~~~~~~~~~~~~~~~~~~~~~~~~~~~~~~~~~~~~~~~~~~~~~~~~~~~~~~~~~~~~~~~~~~~~~~~~~~~~~
| /  slide up
| \  slide down
| h  hammer-on
| p  pull-off
| ~  vibrato
| +  harmonic
| x  Mute note


Important: The song above is NOT stored on the Chordie server. The original song is hosted at www.guitaretab.com. Chordie works as a search engine and provides on-the-fly formatting. Chordie does not index songs against artists/composers will. To remove this song please click here.

This song is displayed as text-only. Transposing and tuning is only available for chordpro-songs.

Login - add to songbook

Rating click stars to rate

Layout
Accuracy

SHARE PAGE  



You need to log in to post comments