Guitar Tabs, Chords and Lyrics


Fall For Me   Teenage Bottle Rocket



I did it by ear and it sounds pretty good. if you have any suggestions let me know.


All Versus:-------------------|
           -------------------|
           -------5---9--7----|
           ---5---5---9--7----|
           ---5--3---7--5-----|
           --3----------------|

Chorus:  -----------------|
         -----------------|
         ------5---7------|
         --5---5---7------|
         --5--3---5-------|
         -3---------------|


Bridge:(x2)
        --------------------|
        --------------------|
        ----5---7-----------|
        ----5---7-----------|
        ---3---5------------|
        --------------------|

Outro:  ---------------------------|
        ---------------------------|
        -------5---7---5-----------|
        ---5---5---7---5-----------|
        ---5--3---5---3------------|


Important: The song above is NOT stored on the Chordie server. The original song is hosted at www.guitaretab.com. Chordie works as a search engine and provides on-the-fly formatting. Chordie does not index songs against artists'/composers' will. To remove this song please click here.

This song is displayed as text-only. Transposing and tuning is only available for chordpro-songs.

Login - add to songbook

Rating click stars to rate

Layout
Accuracy

SHARE PAGE  




You need to log in to post comments