Guitar Tabs, Chords and Lyrics


Radio  Teenage Fanclub



e|--3----2----3----2-----0-0-0-0-0-0-2-2-|

B|----3----3----3----3---3-3-3-3-3-3-3-3-|
G|---2----2----2----2----2-2-2-2-2-2-2-2-|
D|---------------------------------------|
A|---------------------------------------|
E|---------------------------------------|
I [A]think I'll kill the [D]radio  [E]
don't want to hear this [A]song [F#]   [B]   [E]
[A]Can't relate to [D]yesterday [E]
what we did was [A]wrong
[D]yeah...[A]mmm...
[E]But now you lighten up my [A]day
with your views
Just out of [D]school
and you're that so [E]uncool


[A]Baby[D], [B]  justif[E]y the reason
be[A]hind your [D]style [B]
Find a [E]craze that fits
and [A]stay there for [D]awhile
[F#]Love to hear your [D]song [A]     [E]
On the A.M.  [D]    [A]    [E]
On the A.M.  [D]    [A]    [E]
(... D A E ...)
On the A.M. (backgroud)



e|-10c--12c------------------|
B|----------12-12-12--12-12--|  (x2)
G|---------------------------|
e|-10c--12c------------------------------------------|
B|----------12-12-12--12-12--12-12-12--12-12-12--14--|
G|---------------------------------------------------|



[A]You can't [D]even get it [E]on
[B]I don't [D]know
what [D]all [C#]you're [A]chan[F#]ces [E]are
[A]And when I [D]try to trip you [E]up
[A]I'm the [D]one who falls [A]
[E]Did you know when I was [A]young
I'd paint my [D]face
with the latest [E]craze
[A]Baby,[D]   [E] justify the reason
be[A]hind you're [D]style    [E]
Find a craze that fits
and [A]stay there for a[E]while
[F#]Love to hear your song[D]   [A]   [E]
On the radio[D],  [A]   [E]  on the radio [D]   [A]   [E]
On the radio[D],  [A]   [E]  on the radio [D]   [A]   [E]
You on the radio[D],  [A]   [E]  on the radio [D]   [A]   [E]
You on the radio[D],  [A]   [E]  on the radio [D]   [A]   [E]



e|-10c--12c------------------|
B|----------12-12-12--12-12--|  (x2)
G|---------------------------|
e|-10c--12c------------------------------------------|
B|----------12-12-12--12-12--12-12-12--12-12-12--14--|
G|---------------------------------------------------|				


Important: The song above is NOT stored on the Chordie server. The original song is hosted at www.guitaretab.com. Chordie works as a search engine and provides on-the-fly formatting. Chordie does not index songs against artists'/composers' will. To remove this song please click here.

Text color:
Chord color:
Chord grids: 
Font size:    
Page size: 

A B C# D E F#
variations - click chord images

Login - add to songbook

Transpose chords

Tuning

Rating click stars to rate

Layout
Accuracy

SHARE PAGE  




You need to log in to post comments