Guitar Tabs, Chords and Lyrics


My Number   Tegan and Sara



Guitar 1 - 7th Fret
Guitar 2 - 5th Fret


Guitar 1 - Intro/Verse

E-----------------|
B-----------------|
G-----------------|
D-------------0---|
A---7---------2---|
E---0----2----3---|


Guitar 2

Intro and Verse (until "watchin your old b-ball games)

E--------------------------|
B--------------------------|
G--------------------------|
D-------2h4p2---2/0--------|
A--2h4----------------4----|
E--------------------------|

OR you can do it this way, which allows the slide to be a little easier

E-----------------------|
B-----------------------|
G-----------------------|
D-----------------------|
A--------7h9p7---7/-4---|
E---7h9-----------------|


Chorus:

Guitar 1

E---------------------------|
B---------------------------|
G---------------------------|
D---2-----------------------|
A---3----2----7---------2---|
E--------3---------2----3---|

For "Promise me you'll always stay"
E----------------|
B----------------|
G----------------|
D---2------------|
A---3---------2--|
E--------2----3--|


Guitar 2
E---2----5----2----4----5---|
B---3----5----2----4----5---|
G---2----6----2----4----6---|
D---0----7----4----6----7---|
A---0----7----4----6----7---|


Important: The song above is NOT stored on the Chordie server. The original song is hosted at www.guitaretab.com. Chordie works as a search engine and provides on-the-fly formatting. Chordie does not index songs against artists/composers will. To remove this song please click here.

This song is displayed as text-only. Transposing and tuning is only available for chordpro-songs.

Login - add to songbook

Rating click stars to rate

Layout
Accuracy

SHARE PAGE  




You need to log in to post comments