Guitar Tabs, Chords and Lyrics


And Darling This Thing That   Tegan and Sara



Intro

e--------|
B--------|
G---5----|
D---5----|
A---3----|
E--------|

VERSE

e---------------------|
B---------------------|
G--5------------------|
D--5---------7----5---|
A--3---------7----5---|
E------------5----3---|


chorus

e---------------------|
B---------------------|
G--2---7-------10--7--|
D--3---7---OR--10--7--|
A--3---5-------8---5--|


Important: The song above is NOT stored on the Chordie server. The original song is hosted at www.guitaretab.com. Chordie works as a search engine and provides on-the-fly formatting. Chordie does not index songs against artists/composers will. To remove this song please click here.

This song is displayed as text-only. Transposing and tuning is only available for chordpro-songs.

Login - add to songbook

Rating click stars to rate

Layout
Accuracy

SHARE PAGE  




You need to log in to post comments