Guitar Tabs, Chords and Lyrics


Dark Come Soon   Tegan and Sara



Ted's guitar part (probably some of Sara's too, depending on the version you listen to)

I put multiple parts for some sections because I tabbed (a) the backup guitar, which
sound good on its own, (b) harmonizing chords, which the lead probably plays, and (c) a
part that they played in some of the live acoustic sessions. Please post corrections or 
if you have any.

No capo, standard tuning

"Dark, oh no you can't . . ."

"Everything I love" to "I need you now."
e|-------------|
B|-------8-----|
G|-7-5-4---7-9-|
D|-------------| x4
A|-------------|
E|-------------|

"Don't forget a million miles" to "Another day can pass by me"
e|------------------------------------------|
B|------------------------------------------|
G|-7-5------7-5-------7-5-----------5-7-5---|
D|-----5-7------5-7-5------5-7--5-7-------7-| x2
A|------------------------------------------|
E|------------------------------------------|

"Everything I love" to "I need you now"
e|------------------------|
B|------------------------|
G|-14-12-10-9-7-5-7-5-9-5-|
D|------------------------| x4
A|------------------------|
E|------------------------|

"So what, I lie . . ."
e|--------| (a)
B|--------|
G|-----7~-|
D|-7~--7~-| x2
A|-7~--5~-|
E|-5~-----|
OR
e|----------| (b)
B|----------|
G|------10~-|
D|-10~--10~-| x2
A|-10~---8~-|
E|--8~------|
OR
e|--------------------| (c)
B|------------------8-|
G|----10------10------|
D|-10-10---10----10---| x2
A|-10--8--------------|
E|--8----8------------|

"Hold out for the ones . . ."
e|---------|
B|-------1-|
G|-------2-|
D|-7-----3-| x2
A|-7-----3-|
E|-5-------|
OR
e|-------|
B|-1~-1~-|
G|-2~-2~-|
D|-2~-3~-| x2
A|----3~-|
E|-------|

"You too."
e|------------------------3-------|
B|-----3---5----------3-----3---3-|
G|-5-5---5---5-4-5--5---5-----5---|
D|--------------------------------| x4
A|--------------------------------|
E|--------------------------------|

"Right to the edge . . ."
e|---------|
B|-------1-|
G|-------2-|
D|-7-----3-| x2
A|-7-----3-|
E|-5-------|
OR
e|-------|
B|-1~-1~-|
G|-2~-2~-|
D|-2~-3~-| x2
A|----3~-|
E|-------|

"Everything I say . . ."
e|----------|
B|----------|
G|------10~-|
D|-10~--10~-| x2
A|-10~---8~-|
E|--8~------|
OR
e|--------|
B|--------|
G|-----7~-|
D|-7~--7~-| x2
A|-7~--5~-|
E|-5~-----|

"So what, I lie"
e|--------| (a)
B|--------|
G|-----7~-|
D|-7~--7~-| x2
A|-7~--5~-|
E|-5~-----|
OR
e|----------| (b)
B|----------|
G|------10~-|
D|-10~--10~-| x2
A|-10~---8~-|
E|--8~------|
OR
e|--------------------| (c)
B|------------------8-|
G|----10------10------|
D|-10-10---10----10---| x2
A|-10--8--------------|
E|--8----8------------|

"Hold out for the ones . . ."
e|---------|
B|-------1-|
G|-------2-|
D|-7-----3-| x2
A|-7-----3-|
E|-5-------|
OR
e|-------|
B|-1~-1~-|
G|-2~-2~-|
D|-2~-3~-| x2
A|----3~-|
E|-------|

"You too."
e|------------------------3-------|
B|-----3---5----------3-----3---3-|
G|-5-5---5---5-4-5--5---5-----5---|
D|--------------------------------| x8
A|--------------------------------|
E|--------------------------------|

"Dark, oh no you can't . . ."



Important: The song above is NOT stored on the Chordie server. The original song is hosted at www.guitaretab.com. Chordie works as a search engine and provides on-the-fly formatting. Chordie does not index songs against artists/composers will. To remove this song please click here.

This song is displayed as text-only. Transposing and tuning is only available for chordpro-songs.

Login - add to songbook

Rating click stars to rate

Layout
Accuracy

SHARE PAGE  




You need to log in to post comments