Guitar Tabs, Chords and Lyrics


Baby You Dont Ever  Teitur

-------------------------------------------------------------------------------



-------------------------------------------------------------------------------

         [A]                [D]                       [E#m]                                                 
e|------0----------------------2----------------------4---------------------|
B|--------------2-----------------------3---------------------5-------------|
G|---------2------------------------2--------------------6------------------|
D|--------------------------0-----------------------------------------------|
A|---0---------------------------------------------4------------------------|
E|--------------------------------------------------------------------------|

      [Bm]                [C#m]                    [E]                                                       
e|------2------------------2------------------0-----------------------------|
B|------------3-------------------2--------------------0--------------------|
G|---------4------------------2-------------------1-------------------------|
D|--------------------------------------------------------------------------|
A|---4------------------2-------------------0-------------------------------|
E|--------------------------------------------------------------------------|

Intro: A (just play it a few times).

Lyrics:

[A]You grabbed my hand and you [D]let me out   (you know “ohohohoout”)
[A]down the stairs among [D]Saturday crowds.
[A]I´ve caught the glimpse of a [D]jealous stare
[A]we stole the night wit[D]hout a care.        [D]

[D]Birds sang in praise as [E#m]we rushed by
[D]and now they´ve gone away before the[Bm] leaves they die.
Refrain:
But [B]baby, you don´t ever have to [E#m]see me again.
[D]After what you left me you don´t owe me [A]anything.

[A]damda[D]mdadamdam…(and so on)

[A]And your face changed when [D]we made love
[A]you took mw to places, I [D]soared like a dove.
[A]In your eyes there were [D]brooks and hills
[A]a thousand lives I had [D]never lived.
bridge:

[E#m]Wind they blew from [C#m]both sides then
[E#m]brought us together where [C#m]we´d never been.

And [D]baby you don´t ever have to [A]see me ag[E]ain
Just [D]carry the emotion [Bm]like it was a golden ring.
[A]dadamda[D]mdamdam…(blubb blubb)[E]
[A]Your romm was tiny and [D]very sparse
[A]It was so real we could [D]see the stars.
[A]Your skin was soft like the [D]sands of a beach
[A]my fingers wrote a [D]word for each.         [D]
[D]We talk like we´re on the r[E#m]ainbows end
[D]and our voices turn to whispers [Bm]every now and then.
Refrain:

[D]Baby you don´t ever have to [E#m]see me again
[D]after what you left me you don´t owe me [A]anything.

That´s it. I hope it will help you because it´s my first tab. I think it´s on of the
songs from Teitur…or rather on of the best songs in the whole world :P. Sometimes I think
the only person in Germany who knows him but I hope that´s not true because he is amazing:).
Well, whatever Aloha from Germany, See ya!!!

Important: The song above is NOT stored on the Chordie server. The original song is hosted at www.guitaretab.com. Chordie works as a search engine and provides on-the-fly formatting. Chordie does not index songs against artists'/composers' will. To remove this song please click here.

Text color:
Chord color:
Chord grids: 
Font size:    
Page size: 

A B Bm C#m D E
variations - click chord images

Login - add to songbook

Transpose chords

Tuning

Rating click stars to rate

Layout
Accuracy

SHARE PAGE  




You need to log in to post comments