Guitar Tabs, Chords and Lyrics
Major upgrade!! After one year development the new version of Chordie is now online! Please give feedback.


Say Hello to Heaven   Temple of the Dog

 
 ------3------3------3------3----------0-------------0------|
 ----3------3------3------3----------3---3---------3---3----|
 ----------------------------------0-------0-----0-------0--|
 --3------3------2------2-----------------------------------|
 --------------------------------1-------------0------------|
 -----------------------------------------------------------|
 ------3------3--------0----------0-------0----------0------|
 ----3------3--------3---3-------------------------3---3----|
 ------------------0-------0----0-------0--------0-------0--|
 -----------------------------------------------------------|
 --3------3------2------------------------------------------|
 -----------------------------1-------1--------0------------|

 


 


 -VERSE-


 [G]Please mother [Am7]mercy take [C]me from this [Em]place


 And the [G]long winded [Am7]curses I keep [C]hearing in my [F]head


 [G]Words never [Am7]listen and [C]teachers never [Em]learn


 [G]Now I'm warm from the [Am7]candle but I [C]feel to cold to [F]burn


 


 -PRE-CHORUS-


 He came from an island and he died from the street


 


 

 
 -------3------3------3------3---------0-------------0------|
 -----3------3------3------3---------3---3---------3---3----|
 ----------------------------------0-------0-----0-------0--|
 -----------------------------------------------------------|
 ---3------3------2------2----------------------------------|
 --------------------------------1-------------0------------|


Important: The song above is NOT stored on the Chordie server. The original song is hosted at www.guitaretab.com. Chordie works as a search engine and provides on-the-fly formatting. Chordie does not index songs against artists'/composers' will. To remove this song please click here.

This song is displayed as text-only. Transposing and tuning is only available for chordpro-songs.
Rate #1 of 8 versions

Login - add to songbook

SHARE PAGE  




You need to log in to post comments