Guitar Tabs, Chords and Lyrics


Faith To Arise  Terry Reid

-------------------------------------------------------------------------------



-------------------------------------------------------------------------------

e|--------------------------|--------------------------|
B|--------------------------|-----------1-----------x--|
G|--------------------------|-----------2p0---------x--|
D|--------------0--1--2--3--|--------------------------|
A|-----0--2--3--------------|--------------------------|
E|--3-----------------------|--------------------------|
   [Cmaj]                           [Gmaj]       
e|--------------------------|-----------------------3--|
B|-----------------------0--|--x---0----------------3--|
G|-----------0-----------0--|--x---0---------x------0--|
D|-----------2p0------------|--x--------0----x------0--|
A|--0h3---------------------|-----------2----x------2--|
E|--------------------------|-----------3-----------3--|


   [Gmaj]                           [Fmaj]       
e|-(3)----------------------|---0----------------------|
B|-(3)----------------------|---1--------1-------------|
G|-(0)----------------------|------------0p2-----------|
D|-(0)-----------0--1--2--3-|--------------------------|
A|-(2)--0--2--3-------------|--------------------------|
E|-(3)----------------------|--------------------------|



   [Cmaj]                           [Gmaj]       
e|--------------------------|-----------------------3--|
B|-----------------------0--|--x---0----------------3--|
G|-----------0-----------0--|--x---0---------x------0--|
D|-----------2p0------------|--x--------0----x------0--|
A|--0h3---------------------|-----------2----x------2--|
E|--------------------------|-----------3-----------3--|



Verse:
        Can you [F]hear what I've been thinkin', do you [C]hear my words out loud?

[G]        cause there's an echo that's insistent, why doesn't the phone ring out now,

        but when it [F]does it rings no question, but when it [C]don't I wonder why,
        baby got [Am]somewhere you can reach me on this[F] dark and lonely [G]night.
Note: I'm kind of guessing on the chords on this part so I could be way off...


        [Am7]oooohhhh, what a faith to [G]arise...yeah
        [Am7]feel that look in your [G]eyes
        [G]you know i'll be thinkin we'll be bringin [Am7]that
        [Am7]time and place in your [G]mind,
        [G]and you need a lesson to hang [Am7]on to,
        [Am7]feel what it is that's a[G]live
Pre Chorus:

Am D, Dsus4, D
and you know that it's only one more day,

Am D, Dsus4, D
that i'm gonna be this far away,

        [Am]and now i'm sitting here [Dsus2]on this phone,

Am (back to riff1)
i've run out of things to say...


Chorus:

        [F]Cept this is gonna feel [C]good to get back [G]home

        [F]now itt's gonna feel [C]good to just get back [G]home
        i've been [F]out here [C]stretchin on my [G]own,
        and [F]now it's gonna feel [C]good to just get back [G]home
I take a plane out in the morning
puts me in tomorrow night
got something i want to say to you
on the hours that i lose in this flight
there's a beauty about london, though the rain's still pouring down
it only makes me thinking of breakin', so the night wakes, and breaks and shakes the ground.

and oohhhh....what a faith to arise,,,yeah
see that look in your eyes
you know you'll be thinkin' you'll be singin' bout that time and place in your mind
sun and you let them grown on into
be what it is that's alive
you know that time she's a passer of everyday
know what it is =, no one you can save
just write your name in the sky, with the curve of the earth of night.
now it's the end of the turn, i can see the reflection in your eyes
so now it's gonna feel good to get back home

| / slide up
| \ slide down
| h hammer-on
| p pull-off
| ~ vibrato
| + harmonic
| x Mute note
===============================================================================

Important: The song above is NOT stored on the Chordie server. The original song is hosted at www.guitaretab.com. Chordie works as a search engine and provides on-the-fly formatting. Chordie does not index songs against artists'/composers' will. To remove this song please click here.

Text color:
Chord color:
Chord grids: 
Font size:    
Page size: 

Am Am7 C Cmaj Dsus2 F Fmaj G Gmaj
variations - click chord images

Login - add to songbook

Transpose chords

Tuning

Rating click stars to rate

Layout
Accuracy

SHARE PAGE  




You need to log in to post comments