Guitar Tabs, Chords and Lyrics


Halo  Texas



			-------------

[-----]                                     
e:----7--5--3--5--3--|-----7--5--3--5--3-|
B:-------------------|-----5--5--5--5--5-|
G:-0--------0--0--0--|-------------------|
D:-------------------|--0--------0--0--0-|
A:-------------------|-------------------|
E:-------------------|-------------------|


Strings
e:-----7--5--3--5--3--|--------0--3-----0--3--|
B:--------------------|-----3--------3--------|
G:--5--5--5--5--5--5--|--0--------------------|
D:--------------------|--2--------------------|
A:--------------------|--3--------------------|
E:--------------------|-----------------------|


Intro/Chorus: (distorted guitar, LOUD)
------------

     [Gmaj7]         [G]             [D6]         [D]                                                  
e:---2--2--2--3--3-|----|--7--7--7--5--5-|----|
B:---3--3--3--3--3-|----|--7--7--7--7--7-|----|
G:---0--0--0--0--0-|----|--7--7--7--7--7-|----|
D:---0--0--0--0--0-|-x2-|--7--7--7--7--7-|-x2-|
A:---x--x--x--x--x-|----|----------------|----|
E:---3--3--3--3--3-|----|----------------|----|

Thumb


Amadd? Am Cadd9 riff
e:-7--7--7--5--5-|----|-x--0--3-|----|
B:-5--5--5--5--5-|----|-3--x--x-|----|
G:-5--5--5--5--5-|----|-0--0--0-|----|
D:-7--7--7--7--7-|-x2-|-2--2--2-|-x2-|
A:-0--0--0--0--0-|----|-3--3--3-|----|
E:---------------|----|---------|----|


Verse 1: (play chords once, lots of echo)
--------

Br[G]ight lights city, your heart re[Gmaj7]ligion,
Superstars in their [G]own private movie,
they play just like [Csus2]childr[C]en
[G]Lies that take her, places [Gmaj7]she's never seen,
The kiss and [G]tell of it all,
to her it [Csus2]seems s[C]o obscene

Bridge:
-------

She's so [Am]pretty, her hair is a [D]mes[Dsus4]s,    [D]
Am Cadd9 riff
We all love her, to that we confess

Chorus:
-------

Gmaj7 G x2 D6 D x2
She had the halo, we really do adore her
Am? Am x2 Cadd9 riff
She had the halo, and we touch her

Verse 2: (same chords as verse 1)
--------

>From their blindness, she seems much further,

Like on the wide screen viewing,

Going down on her...

Play bridge then chorus
------------------------


Chorus 2:
---------

        [G]She.........believes with [D]everything
Am Cadd9 riff
Sheeehee....believes in nothing and everything

Break:
------

G D Am Cadd9 riff

Play chorus 1 and 2 with following riffs:

Gadd? G D riff C6 C Cadd9
e:--5--5--5--3--3-|--|------|-5--5--5--3--3|--|------|
B:--3--3--3--3--3-|--|------|-5--5--5--5--5|--|-riff-|
G:--0--0--0--0--0-|x2|-same-|-5--5--5--5--5|x2|--as--|
D:--0--0--0--0--0-|--|--as--|-5--5--5--5--5|--|usual-|
A:--x--x--x--x--x-|--|-usual|--------------|--|------|
E:--3--3--3--3--3-|--|--x2--|--------------|--|------|



Then fade out on chorus...

Easy version for the chorus, if you can't be arsed: (forget the bass)

[Gmaj7]xx0032  [G]xx0033  [D6]xx0202  [D]xx0232  [Amsus2]x02200  [Am]x02210  [Cadd9]032033
x2 x2 x2


Chords: (the right way to play them...I hope!)
------


Csus2 032030
C 032010
Cadd9 032033
G 320033
Gmaj7 3x0032
D xx0777 ->in chorus riff
D6 xx0775
D xx0232 ->in bridge
Dsus4 xx0233
Am x07555 -> in chorus
Am? x07557
Am x02210 -> in bridge
C x35553
C6 x35555



[--]Frederic Maquet
Webpage: http://www.geocities.com/SunsetStrip/3224/
**********************

Important: The song above is NOT stored on the Chordie server. The original song is hosted at www.guitaretab.com. Chordie works as a search engine and provides on-the-fly formatting. Chordie does not index songs against artists'/composers' will. To remove this song please click here.

Text color:
Chord color:
Chord grids: 
Font size:    
Page size: 

Am Amsus2 C Cadd9 Csus2 D D6 Dsus4 G Gmaj7
variations - click chord images

Login - add to songbook

Transpose chords

Tuning

Rating click stars to rate

Layout
Accuracy

Jango Player

SHARE PAGE  




You need to log in to post comments