Guitar Tabs, Chords and Lyrics


Eastern Glow   Album Leaf



Eastern Glow
by
The Album Leaf

The other tab of this was good, but I found a way to do it without a capo.  Very easy 
on only the E, A, and D strings.  Awesome song!

First the percussion, then this.  Play every note on the D string with more emphasis 
the others.  Also, for this song, try to let every note ring out for a while, especially 
main riff.

Intro (0:09-0:45)
e-------------------|-------------------|-------------------|
B-------------------|-------------------|-------------------|
G-------------------|-------------------|-------------------|
D--------7-------7--|--------7-------7--|--------7-------7--|
A------9-------9----|------9-------9----|------7-------7----|
E---7-------7-------|---7-------7-------|---5-------5-------|

e-------------------|
B-------------------|
G-------------------|
D--------7-------7--| X2
A------7-------7----|
E---5-------5-------|

Then the first verse arrives at 0:46.  Play the aobve riff through the verse.  At the 
a violin plays this piece as the guitar continues its riff quietly.

Violin Instrumental (1:22- 1:58)

e-----------------------|------------------|-------|
B-----------------------|------------------|-------|
G-----------------------|------------------|-------|
D-------7------------7--|---4-2------------|-------|
A-4--5---------4--5-----|-------------5-4--|-5---4-|
E-----------------------|------------------|-------|

e-----------------------|------------------|
B-----------------------|------------------|
G-----------------------|------------------|
D-------7------------7--|---4-2------------|
A-4--5---------4--5-----|-------------5-4--| 

Important: The song above is NOT stored on the Chordie server. The original song is hosted at www.guitaretab.com. Chordie works as a search engine and provides on-the-fly formatting. Chordie does not index songs against artists'/composers' will. To remove this song please click here.

This song is displayed as text-only. Transposing and tuning is only available for chordpro-songs.

Login - add to songbook

Rating click stars to rate

Layout
Accuracy

SHARE PAGE  




You need to log in to post comments