Guitar Tabs, Chords and Lyrics


Jawbone  Band

-----0-0(5)-----0-0(5)-----0----|


-----2-2-2------2-2-2------0----|


(2)--2-2-2-(2)--2-2-2-(2)--1----|

-2---2-2-2--2---2-2-2--2---2----|
-2h4-0-0-0--2h4-0-0-0--2h4-2----|
---------------------------0----|
-------------------------------------|
-----------------------------------5-|
-----2-2------2-----2------2-2--/4---|
-2---2-2---2--2--2--2--2---2-2-------|
-2h4-------2h4---2h4---2h4-----------|
-------------------------------------|
-----------------------------|
-----------------------------|
----2-2------2------2--------|
-2--2-2--2---2--2---2--------|
-2h4-----2h4----2h4----------|
----------------------4p2p0--|
[E)F#]Oh, Jawbone, [B7]when did you [A]first go [E]wrong?
O[F#]h, Jawbone, [B7]where is it [A]you b[E]elong?
[D]Three time [D/F#]loser, you'll [G]never le[B7]arn
[Em]Lay down your [C]tools before you [A]burn
[D]Ya keep on [D/F#]runnin' and [G]hidin' your [B7]face
[Em]Spreadin' your [C]heat all over the [A]place  [B7]
Chorus
E C#m Fig1
I'm a thief and I dig it
E C#m Fig1
I'm up on a beef, I'm gonna rig it
E C#m Fig2
I'm a thief and I dig it


Verse
Oh, Jawbone, why don't cha sit and moan?
Oh, Jawbone, you know that it's stone for stone
Sneak through the night upon your toes
To look in your eye, it never shows
Your name upon the post office wall
Put you on edge 'cause they wrote it too small

Chorus
I'm a thief and I dig it
I'm up on a beef, I'm gonna rig it
I'm a thief and I dig it

Verse
Oh, Jawbone, revenge stays on your mind
Oh, Jawbone, you been doin' too much time
Pull off a job with an inside man
who needs the cash and likes your plan
Then you will know just who to thank
when you land right back in the tank


Chorus
I'm a thief and I dig it
I'm up on a beef, I'm gonna rig it
I'm a thief and I dig it

Solo

Verse
Oh, Jawbone, why dont'cha go home?
Oh, Jawbone, where is it you belong?
Boostin' and goin' out on the lam
Ya know that you'll steal anything that you can
Temptation stands just behind the door
So what you wanna go and open it for?

Chorus
I'm a thief and I dig it
I'm up on a beef, I'm gonna rig it
I'm a thief and I dig it

Important: The song above is NOT stored on the Chordie server. The original song is hosted at www.guitaretab.com. Chordie works as a search engine and provides on-the-fly formatting. Chordie does not index songs against artists'/composers' will. To remove this song please click here.

Text color:
Chord color:
Chord grids: 
Font size:    
Page size: 

A B7 C D D/F# E Em F# G
variations - click chord images

Login - add to songbook

Transpose chords

Tuning

Rating click stars to rate

Layout
Accuracy

Jango Player

SHARE PAGE  




You need to log in to post comments