Chordie logo


In Love   Beautiful Girls



Its pretty darn easy, but its a great song...and my second tab...so here goes:

h = hammer on
\ = slide down

The intro has two guitars:

Guitar 1

-----------------------------------------------------|
-----------------------------------------------------|
----10-10--------------8-----------------------------|
------------------10------10----8--------------------|
----8--8-----------------------------11-----8--8-----|
-----------------------------------------------------|

Guitar 2

lightly palm-muted
-------------------------------------|
-------------------------------------|
---------8---------------------------|
----10------10----8------------------|
-------------------------11\---------|
-------------------------------------|


Pre-Chorus (last few bars of verse):
-----------------------------------------------------------|
-----------------------------------------------------------|
----10-10-10-10-10-10-10-10----13-13-13-13-13-13-13-13-----|
-----------------------------------------------------------|
----8--8--8--8--8--8--8--8--12-11-11-11-11-11-11-11-11-----|
-----------------------------------------------------------|

--------------------------------------|
--------------------------------------|
-----15-15-15-15-15-15-15-15----------|
--------------------------------------|
--14-13-13-13-13-13-13-13-13----------|
--------------------------------------|

Chorus:
-----------------------------------------------|
-----------------------------------------------|
-----------------------------------------------|
-----------------------------------------------|
-----------------------------------------------|
----3---3---0h6--6----0h1--1---0h1--0h1--------|

Bridge:
-----------------|  |----------------------------------|
-----------------|  |----------------------------------|
-----------------|  |----------------------------------|
-3-3-3-3-3-3-3-3-|  |-6-6-6-6-6-6-6-6-8-8-8-8-8-8-8-8--|
-3-3-3-3-3-3-3-3-|  |-6-6-6-6-6-6-6-6-8-8-8-8-8-8-8-8--|
-3-3-3-3-3-3-3-3-|  |-6-6-6-6-6-6-6-6-8-8-8-8-8-8-8-8--| x3

----------------------------------|
----------------------------------|
-----------------6-6-6-6-8-8-8-8--|
-6-6-6-6-6-6-6-6-6-6-6-6-8-8-8-8--|
-6-6-6-6-6-6-6-6-4-4-4-4-6-6-6-6--|
-6-6-6-6-6-6-6-6------------------| 

Thats all folks ;)


Important: The song above is NOT stored on the Chordie server. The original song is hosted at www.guitaretab.com. Chordie works as a search engine and provides on-the-fly formatting. Chordie does not index songs against artists/composers will. To remove this song please click here.

This song is displayed as text-only. Transposing and tuning is only available for chordpro-songs.

Login - add to songbook

Rating click stars to rate

Layout
Accuracy

SHARE PAGE  




You need to log in to post comments