Guitar Tabs, Chords and Lyrics


Ocean  Bravery

-------------------------------------------------------------------------------



-------------------------------------------------------------------------------

Intro & Verses:

Bm Bm? G D/F#? Em Em G G
e|----22-2-|---00-0-|---33-3-|---00-0-|---00-0-|---00---|---33-3-|---33-3-|
B|----33-3-|---33-3-|---33-3-|---33-3-|---00-0-|---00---|---33-3-|---33-3-|
G|----44-4-|---44-4-|---00-0-|---22-2-|---00-0-|---00---|---00-0-|---00-0-|
D|----44-4-|---44-4-|---00-0-|---00-0-|---22-2-|---22---|---00-0-|---00-0-|
A|--2------|-0------|---xx-x-|---xx-x-|---22-2-|---22---|---xx-x-|---xx-x-|
E|---------|--------|-3------|-2------|-0------|-0----2-|-3------|-3------|


1 2 3 | 1 2 3 | 1 2 3 | 1 2 3 | 1 2 3 | 1 2 3 | 1 2 3 | 1 2 3
Rhythm: 3/4 time; triplets of 1/4 notes.
Pre-chorus1:
      [G]         [G]                                                                       
e|-----33-3-|---33-3----|
B|-----33-3-|---33-3----|
G|-----00-0-|---00-0----|
D|-----00-0-|---00-0----|
A|-----xx-x-|---xx-x----|
E|---3------|-3---------| 

1 2 3 | 1 2 3
Pre-chorus2:

    [G]         [G]                                                                         
e|----33-3-|-------|--------------------------------|
B|----33-3-|-------|--------------------------------|
G|----00-0-|-------|--------------------------------|
D|----00-0-|-------|--------------------------------|
A|----xx-x-|---0-1-|--------------------------------|
E|--3------|-3-----|--------------------------------|

1 2 3 | 1 2 3

These are just two variations that I heard in the performance I tabbed this
from, but I think there were other variations in other recordings, so give
a listen to a few. The pre-choruses are just half a measure thrown
Chorus:


This is just strumming |Bm|Bm|D|D|A|A|E|E|, same rhythm as the verse. I'm not
going to tab it out :P
Lyrics:

Notice the rhythm of the words have the same triplet rhythm as the strumming for
the most part. Listen to the recording for the timings, I've tried to place the
chords over the correct syllables below so you can more easily get the lyrical
timing.

[Intro x2] 

[Verse x4] 
Bm Bm? G D/F#?
I climbed up the mountain and looked off the edge
at [Em]all of the [Em]lives that I [G]never have [G]led
Bm Bm? G D/F#?
there's one where I stayed with you accross the sea
I [Em]wonder do you [Em]still think of [G]me     [G]

Bm Bm? G D/F#?
I will carry your image always in my head
[Em]folded and [Em]yellowed and [G]torn at the [G]edge
Bm Bm? G D/F#?
and I'll look u-pon it for so many years
[Em]slowly I'm [Em]losing your [G]face    [G]

[Pre-cborus1] 

[Cborus x2] 
[Bm]Oh    [Bm]   the [D]ocean [D]rolls us a-[A]way, [A]   a-[E]way,[E]
a[Bm]-way [Bm]   the [D]ocean [D]rolls us a-[A]way  [A]     [E]    [E]
[Verse x4] 
Bm Bm? G D/F#?
Sixes and sevens we live on jet planes
[Em]so many [Em]faces I [G]don't know the [G]names
Bm Bm? G D/F#
So many friends now and none of them mine
[Em]forgotten as [Em]soon as we [G]meet   [G]

Bm Bm? G D/F#
All of these moments are lost in time
but you're [Em]caught in my [Em]head like a [G]thorn on a [G]vine
Bm Bm? G D/F#
forever torment me and I wonder why
do I [Em]wish I'd never [Em]known you at [G]all      [G]

[Pre-cborus2] 

[Cborus x4] 
[Bm]Oh    [Bm]   the [D]ocean [D]rolls us a-[A]way, [A]   a-[E]way,[E]
a-[Bm]way [Bm]   the [D]ocean [D]rolls us a-[A]way  [A]     [E]    [E]
[Bm]Oh    [Bm]   the [D]ocean [D]rolls us a-[A]way, [A]   a-[E]way,[E]
a-[Bm]way [Bm]   the [D]ocean [D]rolls us a-[A]way  [A]     [E]    [E]
[Verse x2] 
[Verse x2] 
...the
Bm Bm? G D/F#?
Sun and the moon an o- cean of air
[Em]so    ma-ny      [Em]voi- ces and [G]no-thing  is  [G]there but the
Bm Bm? G D/F#?
ghost of you ask- ing me why, why did I
[Em]leave            [Em]             [G]              [G]

[Pre-cborus1] 

[Cborus x4] 
[Bm]Oh    [Bm]   the [D]ocean [D]rolls us a-[A]way, [A]   a-[E]way,[E]
a[Bm]-way [Bm]   the [D]ocean [D]rolls us a-[A]way  [A]     [E]    [E]
[Bm]Oh    [Bm]   the [D]ocean [D]rolls us a-[A]way, [A]   a-[E]way,[E]
a[Bm]-way [Bm] and I [D]loose your [D]hand through the [A]waves  [A]     [E]    [E]
===============================================================================

Important: The song above is NOT stored on the Chordie server. The original song is hosted at www.guitaretab.com. Chordie works as a search engine and provides on-the-fly formatting. Chordie does not index songs against artists'/composers' will. To remove this song please click here.

Text color:
Chord color:
Chord grids: 
Font size:    
Page size: 

A Bm D E Em G
variations - click chord images

Login - add to songbook

Transpose chords

Tuning

Rating click stars to rate

Layout
Accuracy

Jango Player

SHARE PAGE  




You need to log in to post comments