Chordie logo

Nagai Tameiki No You Ni     Brilliant Green



***			terrafirma *** a brilliant green website
the brilliant		http://brilliant green.cjb.net
green			transcribed by : Nathan Adams


nagai tameiki no you ni
________________________________________________________________

standard tuning:
-----------------

   G:  320033
G/F#:  200033
   C:  x32010
  Cm:  335543
  Em:  022000
 Em2:  021000
 Em3:  020000
  A7:  x02020
Dsus4: xx0233
    D: xx0232
D/F# : 2x023x

-----------------

INTRO:

| G | G/F# | C (x4)


VERSE 1:
G    G/F#     |C               |G     
     |C
ima akete yuku sora ni chikatta donna kanashimi mo
     |Em    D       |C      G         |C    
A7      |D-Dsus4-D
kono te ni ukete tsuyoi kimochi de kanjite yuku koto wo


G       G/F#     |C              |G      
     |C
yume wa genjitsu yori mo toki ni wa zankoku no you de
    |Em  D         |C        G         |C   
 A7    |D-Dsus4-D
mezamete sukoshi setsunakute naita kanashii yume datta


PRE-CHORUS:
      |Em        |Em2            |Em3     |A
tokidoki kono yo no nanimo ka mo ga imaimashikute
       |C                 |C
koukai ni umoreta watashi no kotoba
      |D                 |D
hakisuteru basho mitsuke dasetara


CHORUS:
|G        G/F#          |Em
I will be happy in your dream
        G/F#        |C
I'll be happy in my mind
        |Cm      D            |G
koufuku no hoshi wo nagashite
          G/F#          |Em
I will be happy in your dream
        G/F#        |C
I'll be happy in my mind
        |Cm          |G
nagai tameiki no you ni


| G | G/F# | C (x2)


VERSE 2: as verse 1
G    G/F#     |C               |G     
     |C
suubyoumae no kako ni obiete eki mo wakarazu ni
     |Em    D       |C      G         |C    
A7      |D-Dsus4-D
jibun wo semeta nante mueki na kurushimi nan deshou

G    G/F#     |C               |G     
     |C
anata ga kureta hon wo hiraite koko kara nige dasou
     |Em    D       |C      G         |C    
A7      |D-Dsus4-D
ima ya ashita ya genjitsu yori mo sukoshi wa mashi dakara

PRE-CHORUS 2:
      |Em        |Em2            |Em3     |A
itsu no hi mo watashi no kotae wa sadamaranakute
       |C                 |C
mayoi ni mayotte toomawari shite
      |D                 |D
tadoritsuki basho soko de matte ite


CHORUS 2:
|G        G/F#          |Em
I will be happy in your dream
        G/F#        |C
I'll be happy in my mind
        |Cm      D            |G
shinjitsu ga yami no naka nara
          G/F#          |Em
I will be happy in your dream
        G/F#        |C
I'll be happy in my mind
        |Cm          |G
isso keshite itte yo


BRIDGE
|Em  D/F# |C
ah..-ah..-ah...
       |Em   D/F#  |C
gin no tsuki no shita
        |Em D/F# |C
kage wo o  -to   -su
        |D    Dsus4  D
shizuka ni..


CHORUS 3:
|G        G/F#          |Em
I will be happy in your dream
        G/F#        |C
I'll be happy in my mind
        |Cm      D            |G
koufuku no hoshi wo nagashite
          G/F#          |Em
I will be happy in your dream
        G/F#        |C
I'll be happy in my mind

     |Cm
nagai tameiki no you ni
|G        G/F#          |Em
I will be happy in your dream
        G/F#        |C
I'll be happy in my mind
        |Cm      D    |G
nagai tameiki no you ni


OUTRO:
| G | G/F# | C (x4) repeat fade out


Guitar 2:

Intro:
e|--------10--7--8------------------|-10--7--8--------8-7-------|
B|------------------7--8-------8-10-|-----------7--8------8-10--|
G|-------------------------7-9------|---------------------------|
D|----------------------------------|---------------------------|
A|----------------------------------|---------------------------|
E|----------------------------------|---------------------------|
then
e|--------10--7--8------------------|-10--7--8--------8-7-------|
B|------------------7--8-------8-10-|-----------7--8------------|
G|-------------------------7-9------|---------------------7-----|
D|----------------------------------|---------------------0-----|
A|----------------------------------|---------------------------|
E|----------------------------------|---------------------------|

Verses:
           x2 this bar
e|---------------------3-------3---|---------------------------------|
B|-----3-------3-----3---3-1-0---3-|-----3-------3-------3-------3---|
G|---0---0---0---0-----------------|---0---0---0---0---0---0---0---0-|
D|-5-------4-----------------------|-2-------0-----------------------|
A|-----------------3---------------|-----------------3---------------|
E|---------------------------------|-------------------------3-------|
then
e|---------------------2---3---2---|
B|-----3-------3---------3---3---3-|
G|---0---0---0---0---2-------------|
D|-----------------0---------------|
A|-3-------4-----------------------|
E|---------------------------------|

Chorus:
e|-----3---5---3------3---5---3--------------2-3-|
B|---3---3---3---3------3---3--------4-3-1-3-----|
G|-4---------------4------------4-5--------------|
D|-----------------------------------------------| (x2)
A|-----------------------------------------------|
E|-----------------------------------------------|

Bridge:
e|-7--8-7---------7--8-7-10--8-7----|
B|--------8-----8-------------------|
G|------------7---------------------|
D|----------------------------------|
A|----------------------------------|
E|----------------------------------|
then
e|-7--8-7------------7---8---10-----|
B|--------8-----8-10----------------|
G|------------7---------------------|
D|----------------------------------|
A|----------------------------------|


Important: The song above is NOT stored on the Chordie server. The original song is hosted at www.guitaretab.com. Chordie works as a search engine and provides on-the-fly formatting. Chordie does not index songs against artists/composers will. To remove this song please click here.

This song is displayed as text-only. Transposing and tuning is only available for chordpro-songs.

Rating click stars to rate

Layout
Accuracy

SHARE PAGE  

You need to log in to post comments