Guitar Tabs, Chords and Lyrics


Nathans Phase   Chameleons



-------------------------------------------------------------------------------
			     NATHAN'S PHASE - The Chameleons
-------------------------------------------------------------------------------
Tabbed by: Klaus Hurskainen
Email: klaus.hurskainen@elisanet.fi

Tuning: F#BEAC#F# (a whole step higher than normal)

Song structure:
intro, verse 1, chorus, verse 2, chorus, 
bridge 1, bridge 2,
verse 2, chorus, 
bridge 1 (end)

=============================
|		INTRO				|
=============================

Reg's guitar (pick each note four times)
||-------------------------|-----------------------|
||-------------------------|-----------------------|
||-------------------------|-----------------------|
||--9----11----12----11----|--9----7----9----11----|    X6
||-------------------------|-----------------------|
||-------------------------|-----------------------|

Dave's guitar (after Reg has gone trough his part twice)
||------------------------|-----------------------|
||------------------------|-----------------------|
||--------------4---------|-------------4---------|    X4
||--------4----------4----|--------4---------4----|
||--2---------------------|--2--------------------|
||------------------------|-----------------------|

=============================
|		VERSE 1				|
=============================

Reg continues his part from the intro
||-------------------------|-----------------------|
||-------------------------|-----------------------|
||-------------------------|-----------------------|    X6
||--9----11----12----11----|--9----7----9----11----|
||-------------------------|-----------------------|
||-------------------------|-----------------------|

Dave's guitar
||-----------------------|---------------------------|
||--3--------------2--3--|------------2--------------|
||-------4---------------|--4--------------2---------|    X6
||------------4----------|-------4--------------4----|
||-----------------------|---------------------------|
||-----------------------|---------------------------|

=============================
|		CHORUS				|
=============================

Reg's guitar
||--------------------------|--------------------------|
||--------------------------|--------------------------|    X2
||--------------------------|--------------------------|
||--55555555----77777777----|--44444455----22222222----|
||--------------------------|--------------------------|

Dave's guitar
||--------------------------|------------------2222----|
||--33333333----55555555----|--22222233----0000--------|
||--------------------------|--------------------------|    X2
||--------------------------|--------------------------|
||--------------------------|--------------------------|
||--------------------------|--------------------------|

=============================
|		VERSE 2				|
=============================

Reg's guitar
||-------------|-----------|
||--3-3-3-3----|-----------|
||--4-4-4-4----|-----------|    X6
||--4-4-4-4----|--4-4-4----|
||-------------|--4-4-4----|
||-------------|--2-2-2----|

Dave's guitar
||-----------------------|---------------------------|
||--3--------------2--3--|------------2--------------|
||-------4---------------|--4--------------2---------|    X6
||------------4----------|-------4--------------4----|
||-----------------------|---------------------------|
||-----------------------|---------------------------|

=============================
|		BRIDGE 1				|
=============================

Dave's guitar
||--------------------------|------------------2222----|
||--33333333----55555555----|--22222233----0000--------|
||--------------------------|--------------------------|    X2
||--------------------------|--------------------------|
||--------------------------|--------------------------|
||--------------------------|--------------------------|

Reg's guitar
||-------------|-----------|
||--3-3-3-3----|-----------|
||--4-4-4-4----|-----------|    X4
||--4-4-4-4----|--4-4-4----|
||-------------|--4-4-4----|
||-------------|--2-2-2----|

=============================
|		BRIDGE 2				|
=============================

Dave's guitar
||--7------7------7---------|
||-------7------7------7----|
||--------------------------|    X4
||--------------------------|
||--------------------------|
||--------------------------|

Reg's guitar
||-------------|-----------|
||--3-3-3-3----|-----------|
||--4-4-4-4----|-----------|    X4
||--4-4-4-4----|--4-4-4----|
||-------------|--4-4-4----|
||-------------|--2-2-2----|

=============================================================


Important: The song above is NOT stored on the Chordie server. The original song is hosted at www.guitaretab.com. Chordie works as a search engine and provides on-the-fly formatting. Chordie does not index songs against artists'/composers' will. To remove this song please click here.

This song is displayed as text-only. Transposing and tuning is only available for chordpro-songs.

Login - add to songbook

Rating click stars to rate

Layout
Accuracy

SHARE PAGE  




You need to log in to post comments