Chordie logo


All The Memories   Classic Crime



-------------------------------------------------------------------------------
			     ALL THE MEMORIES - The Classic Crime
-------------------------------------------------------------------------------
Tabbed by: Franco Nidea
Email: franco_nidea@yahoo.com

Tuning: Standard


This is just like a guide to the song. I'll update when I'm not lazy anymore. Just 
to post this since there isn't any tab for this great song.


INTRO

Lead
e|-----------------------------------------------------------------|
B|-----------------------------------------------------------------|
G|---7~---------------------------------------11~-------9~------7--|
D|---7~----------------------------------------x--------x~------7--|
A|---5~----------------------------------------9~-------7~------5--|
E|-----------------------------------------------------------------|

Rhythm
e|-----------------------------------------------------------------|
B|-----------------------------------------------------------------|
G|-----------------------------4~--------------5~--------------7---|
D|-----------------------------4~--------------5~--------------7---|
A|-----------------------------2~--------------3~--------------5---|
E|-----------------------------------------------------------------|



VERSE 1

lead:    () () () ()
         () () () d

rhythm:  d  g  d  g
         b  g  b  g


CHORUS = INTRO

VERSE 2

same as verse 1 except lead

e |------------------------------|
B |----7-----5-------5h7-5-------|
G |--7----7-----7-7--------7-----|
D |------------------------------|
A |------------------------------|
E |------------------------------|


BRIDGE

rhythm: b a#  

Important: The song above is NOT stored on the Chordie server. The original song is hosted at www.guitaretab.com. Chordie works as a search engine and provides on-the-fly formatting. Chordie does not index songs against artists/composers will. To remove this song please click here.

This song is displayed as text-only. Transposing and tuning is only available for chordpro-songs.

Login - add to songbook

Rating click stars to rate

Layout
Accuracy

SHARE PAGE  




You need to log in to post comments