Chordie logo


Summertime   Click Five



The Click Five - Summertime

Intro

Guitar 1
-------------------------------------|
---2-2-3-2-2-2-2-2-2-2-2-2-2-2-2-2---|
---4-4-5-4-4-4-4-4-4-4-4-4-4-4-4-4---|
---4-4-5-4-4-4-4-4-4-4-4-4-4-4-4-4---|
-------------------------------------|
-------------------------------------|

Guitar 2
-------------------------------------|
-------------------------------------|
-------------------------------------|
---------------9----9----9----9------|
------------12---12---12---12--12----|
-------------------------------------|

Verse 1
"On the boardwalk, Workin' Two Shifts..."

Guitar 1
---7-7------------7-7-2-2-2-2-2---|
---9-9-7-7-7-7-7--9-9-4-4-4-4-4---|
---9-9-9-9-9-9-9--9-9-4-4-4-4-4---|
-------9-9-9-9-9------------------| (x4)
----------------------------------|

Bridge 1
"Summertime, Summertime, You do it to me..."

Guitar 1+2
---7-7-7-7-7-7-7-7-7-7-7-7-7-2-2-2-2-2-2-2-2-2-2-2-2-2---|
---9-9-9-9-9-9-9-9-9-9-9-9-9-4-4-4-4-4-4-4-4-4-4-4-4-4---|
---9-9-9-9-9-9-9-9-9-9-9-9-9-4-4-4-4-4-4-4-4-4-4-4-4-4---|
---------------------------------------------------------|
---------------------------------------------------------|
---------------------------------------------------------|

Chorus
"Oh, oh, oh, oooh~ I'm Restless..."

Guitar 1+2
-----------7-7-7-2-2-2-2-2-2-2---|
---7-7-7-7-9-9-9-4-4-4-4-4-4-4---|
---9-9-9-9-9-9-9-4-4-4-4-4-4-4---|
---9-9-9-9-----------------------| (x2)
---------------------------------|
---------------------------------|

"Oh, I can feel it. Baby is it real or is it just a sign? It's Summertime!"

Guitar 1+2
-----------4-4-4-4-7-7-7-7-3-3-3-3-3-3-3-3-5---|
---5-5-5-5-6-6-6-6-9-9-9-9-5-5-5-5-5-5-5-5-7---|
---7-7-7-7-6-6-6-6-9-9-9-9-5-5-5-5-5-5-5-5-7---|
---7-7-7-7-------------------------------------|
-----------------------------------------------|
-----------------------------------------------|


---7-7--------7-7-2-2-2--7-7--------7-7-2-2-5-4-5---|
---9-9-7-7-7--9-9-4-4-4--9-9-7-7-7--9-9-4-4-7-6-7---|
---9-9-9-9-9--9-9-4-4-4--9-9-9-9-9--9-9-4-4-7-6-7---|
-------9-9-9-----------------9-9-9------------------|
----------------------------------------------------|
----------------------------------------------------|

Verse 2
"Left the weekend, Got my ink done..."

Guitar 1
---7-7------------7-7-2-2-2-2-2---|
---9-9-7-7-7-7-7--9-9-4-4-4-4-4---|
---9-9-9-9-9-9-9--9-9-4-4-4-4-4---|
-------9-9-9-9-9------------------| (x4)
----------------------------------|

Bridge 2 same as Bridge 1

(Chorus)

Solo
----------11-9-7----------------------------11-9-7--------------------------|
---7-11-9--------9--9-9\11---9\11-9--7-11-9--------9------------------------|
---------------------------9------------------------------------------------|
-----------------------------------------------------11-11-11-11-11-11-11---|
----------------------------------------------------------------------------|
----------------------------------------------------------------------------|

----------11-9-7----------------------------11-9-7-----------11-9-7---|
---7-11-9--------9--9-9\11---9\11-9--7-11-9--------9--9\11-9----------|
---------------------------9------------------------------------------|
----------------------------------------------------------------------|
----------------------------------------------------------------------|
----------------------------------------------------------------------|



Important: The song above is NOT stored on the Chordie server. The original song is hosted at www.guitaretab.com. Chordie works as a search engine and provides on-the-fly formatting. Chordie does not index songs against artists/composers will. To remove this song please click here.

This song is displayed as text-only. Transposing and tuning is only available for chordpro-songs.

Login - add to songbook

Rating click stars to rate

Layout
Accuracy

SHARE PAGE  




You need to log in to post comments