The Logo

Confusions

-------------------------------------------------------------------------------

-------------------------------------------------------------------------------
-------------------------------------------------------------------------------

 EmC
e|--------------------------------------------------|
B|-8--8--10-10-7--7--8--7--5--5--5--5--5--5--5--5---|
G|--------------------------------------------------|
D|--------------------------------------------------|
A|-7--7--7--7--7--7--7--7--3--3--3--3--3--3--3--3---|
E|--------------------------------------------------|


 CDBmC
e|--------------------------------------------------|
B|-5--5--7--7--3--3--8--7--5--5--5--5--5--5--5--5---|
G|--------------------------------------------------|
D|--------------------------------------------------|
A|-3--3--5--5--2--2--------3--3--3--3--3--3--3--3---|
E|--------------------------------------------------|


Chorus riff:

 EmDBmC
e|--------------------------------------------------|
B|-8--------7--------------3--------5---------------|
G|--------------------------------------------------|
D|--------------------------------------------------|
A|-7--------5--------------2--------3---------------|
E|--------------------------------------------------|


Verse:
 EmC
 Paper people pointing with their guns
 DBmC
across the office buildings time for lunch
 EmC
 Losing up their ties and made up smiles
 DBmC
eating information making lies

Chorus:
 EmDBmC
 The logo on your t-shirt is not who you are
 EmDBmC
the trademark that is there is not who you are

Verse:
 EmC
 The logo that you wear upon your chest
 DBmC
a trademark telling you you're like the rest
 EmC
 Remember who you are and what you're not
 DBmC
don't be one of those who just forgot

Chorus:
 EmDBmC
 The logo on your t-shirt is not who you are
 EmDBmC
 the trademark that is there is not who you are
 EmDBmC
 The logo on your t-shirt is not who you are
 EmDBmC
 the trademark that is there is not who you are


Bm C D Em
variations - click chord images
Transpose chords:
Tuning:
Cool service:
View: Size:
A  A  A
Rating:
Layout:
  • Currently 2.9/5 Stars.
  • 1
  • 2
  • 3
  • 4
  • 5
 
Accuracy:
  • Currently 3.2/5 Stars.
  • 1
  • 2
  • 3
  • 4
  • 5
 
click stars to rate
Chordie recommends:
Get acoustic guitar lessons and electric guitar lessons at JamPlay.com
Songbook:
Login to add this song to your songbook
Support the artist
Preview/buy this song
MSN Music
Why this non-profit ad?

 
login to add comments/video/corrections