Chordie logo


The Blood And The Frog   Falcon



-----------------------------------------------------------------------------
			     The Blood And The Frog - The Falcon
----------------------------------------------------------------------------

Tabbed by:rob
Email:brainwashed_monkey@bluebottle.com

Tuning:EADGBe

Intro
e|---------------------|-----------------------------------------|
B|---------------------|-----------------------------------------|
G|-----44------22------|-----66--44--22--------------------------|
D|-22--44--22--22--X2--|-22--66--44--22------X2----pickslide!!---|
A|-22--22--22--00------|-22--44--22--00--------------------------|
E|-00------00----------|-00--------------------------------------|
   you can't dig...      coz the hammers on strings making notes...

e|--------------------------------------------|
B|--------------------------------------------|
G|-6666--------4444--2222---------2222-4444---|
D|-6666--2222--4444--2222----X3---2222-4444---|
A|-4444--2222--2222--0000---------0000-2222---|
E|-------0000---------------------------------|
    oh where, oh where, oh where......

e|-------------------------------------|
B|-------------------------------------|
G|---------2222x-----666-444-----------|
D|-22xxxxxx2222x22xxx666-444------X2---|
A|-22xxxxxx0000x22xxx444 222-----------|
E|-00xxxxxx-----00xxx------------------|

e|--------------------------------------------|
B|-..--..------------..--..---..--..----------|
G|-666-666--..--..---444-444--222-222---------|
D|-666-666--222-222--444-444--222-222----X4---|
A|-444-444--222-222--222-222--000-000---------|
E|----------000-000---------------------------|
   these are closed and velvet ropes...

e|-----------------------------------|
B|-----------------------------------|
G|-6666--------4444--2222------------|
D|-6666--2222--4444--2222----X4------|
A|-4444--2222--2222--0000------------|
E|-------0000------------------------|
   and again but louder.

e|-----------------------------------------------------|
B|-----------------------------------------------------|
G|-----44--66--2222--------------4444-6666-2222--------|
D|-22--44--66--2222--X4-----2222-4444-6666-2222---X4---|
A|-22--22--44--0000---------2222-2222-4444-0000--------|
E|-00-----------------------0000-----------------------|
   so take your chances....

e|--------------------|
B|--------------------|
G|-------4~~---2~~----|
D|-2~~---4~~---2~~----|
A|-2~~---2~~---0~~----|
E|-0~~----------------|
  and all your hope is gone....


| .  palm mute
| ~  let ring
| x  Mute string


Important: The song above is NOT stored on the Chordie server. The original song is hosted at www.guitaretab.com. Chordie works as a search engine and provides on-the-fly formatting. Chordie does not index songs against artists/composers will. To remove this song please click here.

This song is displayed as text-only. Transposing and tuning is only available for chordpro-songs.

Login - add to songbook

Rating click stars to rate

Layout
Accuracy

SHARE PAGE  




You need to log in to post comments