Guitar Tabs, Chords and Lyrics


Ellas In The Band  Fratellis

-------------------------------------------------------------------------------



-------------------------------------------------------------------------------

   [E]                       [E7]     [E]                                                       
e|-----0-----------|-0----0----0---||
B|-----0---0---0---|-0----0----0---||
G|-1---1---1---1---|-1----1----1---||
D|-2---2---2---2---|-2----0----2---||
A|-2-------2---2---|-2----0----2---||
E|-0-----------0---|-----------0---||

Verse
   [E]                            [E]          [A]                                             
e|-------0-------------------|------0----0----0---|
B|-------0------0-------0----|------0----2----2---|
G|-1-----1------1-------1----|-1----1----2----0---|
D|-2-----2------2-------2----|-2----2----2----0---|
A|-2------------2-------2----|-2---------0----0---|
E|-0--------------------0----|-0------------------|


Baby's in the kitchen on the big black trombone
  [E]I'm in the bedroom on the cursed [A]phone
  [E]    [E7]                               
   [A]         [G]                [A]          [G]                                                
e|-----0------------------|------0-------------|
B|-2---2----0------0------|-2----2----0---0----|
G|-2---2----0------0------|-2----2----0---0----|
D|-2---2----0------0------|-2----2----0---0----|
A|-0--------2------2------|-0---------2---2----|
E|----------3-------------|-----------3---0----|


Everybody laughs when the band goes too slow
  [A]Meeting every [G]Tuesday in a [A]club in [G]Soho
  [E]I'm just dreaming on Rocke[A]feller [E]Plaza
  [E]Paul's in the hall with the bedroom [A]plaything
  [E]He's wishing he could give her a damn good [A]thrashing
  [A]Everybody [G]cries, "Well, [A]good for [G]you, Paul!
  [A]We never [G]liked her [A]very much [G]at all."
  [E]I'm just dreaming on Rocke[A]feller [E]Plaza
  [E7]     [E]    [E7]                          
Chorus
   [E]                   [D]       [E]          [E]                         [A]    [G]    [E]              
e|-----0------------|-2--2-----------|-------0----------------|-0------------|
B|-----0---0----0---|-3--3-------0---|-------0----0-----0-----|-2---0---0--0-|
G|-1---1---1----1---|-2--2---1---1---|-1-----1----1-----1-----|-2---0---1--1-|
D|-2---2---2----2---|-0--0---2---2---|-2-----2----2-----2-----|-2---0---2--0-|
A|-2-------2----2---|----0---2---2---|-2----------2-----2-----|-0---2---2--0-|
E|-0------------0---|--------0-------|-0----------------0-----|-----3---0----|


I'm just waiting on magic shoes, got three wee chords, and I just can't lose
  [E]I'm just finding my [D]own wa[E]y there, [E]I lost my voice and I [A]grew [G]my [E]hair
  [E]    [E7]     [E]    [E7]                      
Verse
  [E]Well, brother John's long gone, keeps his [A]nose clean
  [E]He's sucking on a black and white T[A]V screen
  [E]    [E7]                               
           [A]              [G]           [A]      [G]                                            
e|-----------------5----------3---|----5------3---|
B|---------5-------5-----3----3---|-5--5--3---3---|
G|---------6-------6-----4----4---|-6--6--4---4---|
D|---------7-------7-----5----5---|-7--7--5---5---|
A|---------7-------7-----5----5---|-7--7--5---5---|
E|---------5-------------3--------|-5-----3-------|


Well, he says he got a girl and a paper memory
  [A]Pictures on the [G]wall and a [A]dog named [G]Henry
  [E]I'm just dreaming on Rocke[A]feller [E]Plaza.
  [E]Well, Ella's in the band but she's always [A]solo
  She's [E]dressed in rags and covered in [A]dayglo
  [A]Banging on the [G]drums like a [A]big white [G]throwback
  [A]Screaming all the [G]while at her [A]husband, [G]poor Jack!
  [E]I'm just dreaming of Rocke[A]feller [E]Plaza
  [E7]     [E]    [E7]                         Chorus
  [E]Well I'm just waiting on [D]pigs to [E]fly
  [E]Got cold dead brains and a [A]reas[G]on [E]why
  [E]I just better move [D]half as [E]slow
  [E]As be your dog and your [A]one [G]man [E]show

Break (played twice)
(repeat three times)
e|------0--------------|-0-------------------||
B|------0----0----0----|-0--------------0----||
G|-1----1----1----1----|-7----6----7----1----||
D|-2----2----2----2----|-6----5----6----0----||
A|-2---------2----2----|-7----6----7----0----||
E|-0--------------0----|-0----0----0---------||
e|------0--------------|-0---------0---------||
B|------0----0---------|-2----0----2----0----||
G|-1----1----1----0----|-2----0----2----0----||
D|-2----2----2----0----|-2----0----2----0----||
A|-2---------2----2----|-0----2----0----2----||
E|-0--------------3----|------3---------3----||


Chorus
  [E]I'm just waiting on [D]magic [E]shoes
  [E]Got three wee chords, and I [A]just [G]can't [E]lose
  [E]I'm just finding my [D]own wa[E]y there
  [E]Oh I lost my voice and[A] I gr[G]ew [E]my hair
  [E]I'm just waiting on pigs [D]to fly  [E]
  [E]Got cold dead brains and a [A]reas[G]on [E]why
  [E]If I just didn't move [D]half as [E]slow
  [E]I'd be your dog and your [A]one [G]man [E]show
  [E]    [E7]     [E]    [E7]     [E]                 
===============================================================================

Important: The song above is NOT stored on the Chordie server. The original song is hosted at www.guitaretab.com. Chordie works as a search engine and provides on-the-fly formatting. Chordie does not index songs against artists'/composers' will. To remove this song please click here.

Text color:
Chord color:
Chord grids: 
Font size:    
Page size: 

A D E E7 G
variations - click chord images

Login - add to songbook

Transpose chords

Tuning

Rating click stars to rate

Layout
Accuracy

SHARE PAGE  




You need to log in to post comments