Guitar Tabs, Chords and Lyrics


B Movie Saga   Fratellis



Not my tab. All credit goes to "freenrich" of The Fratellis Forum. I changed very little 
it, just to what sounded right to my ear.

F5(2) is described as:
e------|
B------|
G--10--|
D--10--|
A---8--|
E------|


B Movie Saga

Riff
e--------------------------------------------|
B--------------------------------------------|
G--------------------------------------------|
D------------3-3-------------------3---------|
A-------2-5------5--------2-5--------5-------|
E--5-5----------------5-5--------------------|

A5 G5 F5 D5 D5
A5 G5 F5 D5 F5(2)

Oh sweet Jesus could this be
My very own last stand
Lupe brown will marry me
It didn't work out as planned

A5 G5 F5 D5 D5
Psychic policemen bang my drum
A5 G5 F5 D5 F5(2)
Wildmen tap my phone
A5 G5 F5 D5 D5
Fifteen guard dogs at my door
A5 G5 F5 D5 F5(2)
Won't leave me alone

A
Well it's all so very simple
A
You don't have to get so deep
A
It's a racket for the lazy
A
I could do it in my sleep

G D
Oh yeah,
G D
well I never ever knew it could be so easy
G D
Oh yeah,
G D
well I never ever knew you could be so cruel

G D
Well I have nothing easy
G D
I hate everything you adore
G D
So tell me when, tell me again
E A
Tell me just once more

G D
Oh yeah,
G D
well I never ever knew it could be so easy
G D
Oh yeah,
G D
well I never ever knew you could be so cruel

A5 G5 F5 D5 D5
Well I would ride a thousand planes
A5 G5 F5 D5 F5(2)
You know I hate to fly
A5 G5 F5 D5 D5
This would satisfy my brains
A5 G5 F5 D5 F5(2)
And give me half a reason why

A5 G5 F5 D5 D5
There's no good reason I should stay
A5 G5 F5 D5 F5(2)
And ten good ones to leave
A5 G5 F5 D5 D5
But I'm just curious to see
A5 G5 F5 D5 F5(2)
What you've got up your sleeve

A
Well you've never let me down so far
A
This could be a day
A
When I should've seen it coming
A
Scrambling up my way

G D
Oh yeah,
G D
well I never ever knew it could be so easy
G D
Oh yeah,
G D
well I never ever knew you could be so cruel

G D
Well I work seven days now
G D
But it would just about do me in
G D
Once in a while, I'll fake you a smile
E A
But I don't have the discipline

G D
Oh yeah,
G D
well I never ever knew it could be so easy
G D
Oh yeah,
G D
well I never ever knew you could be so cruel

Riff
e-----------------------------------------------------------------------------------------------|
B-----------------------------------------------------------------------------------------------|
G---------------------------10-10------10--10-----------------------------------12-12-12-12-----|
D-----------2-3--2-----------9--9-------9---9-----------------4--5--4-----------11-11-11-11-----|
A-----2--5---------5--2-----10-10------10--10----------4--7----------7--4-------12-12-12-12-----|
E---3------------------------------------------------5------------------------------------------|

e-------------------------|
B-------------------------|
G----12-10-10-------------| x3
D-------------12----10-12-|
A-10-------------12-------|
E-------------------------|

e-------------------------|
B-------------------------|
G------------9-8----------|
D---9-8---7---------------|
A-7-----------------------|
E-------------------------|

A5 G5 F5 D5 D5
A5 G5 F5 D5 F5(2)
A5 G5 F5 D5 D5
A5 G5 F5 D5 F5(2)

A
Well it's all so very simple
A
You don't have to get so deep
A
It's a racket for the lazy
A
I could do it in my sleep

G D
Oh yeah,
G D
well I never ever knew it could be so easy
G D
Oh yeah,
G D
well I never ever knew you could be so cruel

G D
Well I have nothing easy
G D
I hate everything you adore
G D
So tell me when, tell me again
E A
Tell me just once more

G D
Oh yeah,
G D
well I never ever knew it could be so easy
G D
Oh yeah,
G D
well I never ever knew you could be so cruel


e-----------------------------------------------------------------------------------------------|
B-----------------------------------------------------------------------------------------------|
G---------------------------10-10------10--10-----------------------------------12-12-12-12-----|
D-----------2-3--2-----------9--9-------9---9-----------------4--5--4-----------11-11-11-11-----|
A-----2--5---------5--2-----10-10------10--10----------4--7----------7--4-------12-12-12-12-----|


Important: The song above is NOT stored on the Chordie server. The original song is hosted at www.guitaretab.com. Chordie works as a search engine and provides on-the-fly formatting. Chordie does not index songs against artists'/composers' will. To remove this song please click here.

This song is displayed as text-only. Transposing and tuning is only available for chordpro-songs.

Login - add to songbook

Rating click stars to rate

Layout
Accuracy

SHARE PAGE  




You need to log in to post comments