Guitar Tabs, Chords and Lyrics


For The Girl   Fratellis



-----------------------------------------------------------------------------
			     For the girl intro ,by The Fratellis
-----------------------------------------------------------------------------
Tabbed by:  Ratty267

Email: DPetitt@aol.com

Tuning: Standard

 is slide up 
< is slide down



e|----------------------------------------------------------------------------|
B|----------------------------------------------------------------------------|
G|-4---6---4---6->-8---8---6--------4--------------->-------6-----------------------|
B|----2---------4----->-------4---------6----->-------6---------8-------------|
G|----2---------4----->-------4---------6----->-------6---------8-------------|
D|----2---------4----->-------4---------6----->-------6---------8-------------|
A|----2---------4----->-------4---------6----->-------6---------8-------------|
E|----2---------4----->-------4---------6----->-------6---------8-------------|
Go back too riff and play twice more, into finished! 




Important: The song above is NOT stored on the Chordie server. The original song is hosted at www.guitaretab.com. Chordie works as a search engine and provides on-the-fly formatting. Chordie does not index songs against artists'/composers' will. To remove this song please click here.

This song is displayed as text-only. Transposing and tuning is only available for chordpro-songs.

Login - add to songbook

Rating click stars to rate

Layout
Accuracy

SHARE PAGE  




You need to log in to post comments