Guitar Tabs, Chords and Lyrics


Cuntry Boys And City Girls   Fratellis



F#7: 242322

B: 799877

F#5: 244

B5: 799

G#m: 466444

F#: 244322


intro:

E|-----|--7--7-7-7---------7--7-7-7-7--------|
B|-----|--7--7-7-7---------7--7-7-7-7--------|
G|-----|--8--8-8-8---------8--8-8-8-8---(x2)-|
D|-----|--9--9-9-9---------9--9-9-9-9--------|
A|--9--|--9--9-9-9----4----9--9-9-9-9--------|
e|--7--|--7--7-7-7----2----7--7-7-7-7--------|

E|----------------------|
B|----------------------|
G|-----------------(x2)-|
D|----------------------|
A|----------------------|
e|---7-7-7-6-5/1--------|


There is a strange strum pattern on the verse, so you'll have to listen to the song to figure it out.

But the chords are just B and F#7 repeatedly.

chorus:

E|----------|----------|
B|----------|----------|
G|----------|----------|
D|--9-------|--4-------| (x2)
A|--9--(x7)-|--4--(x7)-|
e|--7-------|--2-------|

E|-----|--7--7-7-7---------7--7-7-7-7--------|
B|-----|--7--7-7-7---------7--7-7-7-7--------|
G|-----|--8--8-8-8---------8--8-8-8-8---(x2)-|
D|-----|--9--9-9-9---------9--9-9-9-9--------|
A|--9--|--9--9-9-9----4----9--9-9-9-9--------|
e|--7--|--7--7-7-7----2----7--7-7-7-7--------|

E|----------|----------|
B|----------|----------|
G|----------|----------|
D|--9-------|--4-------| (x2)
A|--9--(x7)-|--4--(x7)-|
e|--7-------|--2-------|

E|-----|--7--7-7-7---------7--7-7-7-7--------|
B|-----|--7--7-7-7---------7--7-7-7-7--------|
G|-----|--8--8-8-8---------8--8-8-8-8---(x4)-|
D|-----|--9--9-9-9---------9--9-9-9-9--------|
A|--9--|--9--9-9-9----4----9--9-9-9-9--------|
e|--7--|--7--7-7-7----2----7--7-7-7-7--------|

E|----------------------|
B|----------------------|
G|-----------------(x3)-|
D|----------------------|
A|----------------------|
e|---7-7-7-6-5/1--------|


Verse


chorus:

E|----------|----------|
B|----------|----------|
G|----------|----------|
D|--9-------|--4-------| (x2)
A|--9--(x7)-|--4--(x7)-|
e|--7-------|--2-------|

E|-----|--7--7-7-7---------7--7-7-7-7--------|
B|-----|--7--7-7-7---------7--7-7-7-7--------|
G|-----|--8--8-8-8---------8--8-8-8-8---(x2)-|
D|-----|--9--9-9-9---------9--9-9-9-9--------|
A|--9--|--9--9-9-9----4----9--9-9-9-9--------|
e|--7--|--7--7-7-7----2----7--7-7-7-7--------|

E|----------|----------|
B|----------|----------|
G|----------|----------|
D|--9-------|--4-------| (x2)
A|--9--(x7)-|--4--(x7)-|
e|--7-------|--2-------|


E|-----|--7--7-7-7---------7--7-7-7-7--------|
B|-----|--7--7-7-7---------7--7-7-7-7--------|
G|-----|--8--8-8-8---------8--8-8-8-8---(x2)-|
D|-----|--9--9-9-9---------9--9-9-9-9--------|
A|--9--|--9--9-9-9----4----9--9-9-9-9--------|
e|--7--|--7--7-7-7----2----7--7-7-7-7--------|

E|--4-------|--2-------|------|-4-|
B|--4-------|--2-------|------|-4-|
G|--4--(x2)-|--3--(x5)-|-(x4)-|-4-|
D|--6-------|--4-------|------|-6-|
A|--6-------|--4-------|------|-6-|
e|--4-------|--2-------|------|-4-|


solo

chorus:

E|----------|----------|
B|----------|----------|
G|----------|----------|
D|--9-------|--4-------| (x2)
A|--9--(x7)-|--4--(x7)-|
e|--7-------|--2-------|

E|-----|--7--7-7-7---------7--7-7-7-7--------|
B|-----|--7--7-7-7---------7--7-7-7-7--------|
G|-----|--8--8-8-8---------8--8-8-8-8---(x2)-|
D|-----|--9--9-9-9---------9--9-9-9-9--------|
A|--9--|--9--9-9-9----4----9--9-9-9-9--------|
e|--7--|--7--7-7-7----2----7--7-7-7-7--------|

E|----------|----------|
B|----------|----------|
G|----------|----------|
D|--9-------|--4-------| (x2)
A|--9--(x7)-|--4--(x7)-|
e|--7-------|--2-------|

E|-----|--7--7-7-7---------7--7-7-7-7--------|
B|-----|--7--7-7-7---------7--7-7-7-7--------|
G|-----|--8--8-8-8---------8--8-8-8-8---(x2)-|
D|-----|--9--9-9-9---------9--9-9-9-9--------|
A|--9--|--9--9-9-9----4----9--9-9-9-9--------|
e|--7--|--7--7-7-7----2----7--7-7-7-7--------|

E|--7--7-7-7----2-2---2-2--|
B|--7--7-7-7----2-2---2-2--|
G|--8--8-8-8----3-3---3-3--|
D|--9--9-9-9----2-2---2-2--|
A|--9--9-9-9----4-4---4-4--|
e|--7--7-7-7----2-2---2-2--|

E|----------|----------|
B|----------|----------|
G|----------|----------|
D|--9-------|--4-------| (x9)
A|--9--(x7)-|--4--(x7)-|
e|--7-------|--2-------|

E|--4-------|--2-------|------|
B|--4-------|--2-------|------|
G|--4--(x2)-|--3--(x5)-|-(x4)-|
D|--6-------|--4-------|------|
A|--6-------|--4-------|------|
e|--4-------|--2-------|------|


E|--4----2-------|-4-|
B|--4----2-------|-4-|
G|--4----3--(x4)-|-4-|
D|--6----4-------|-6-|
A|--6----4-------|-6-|


Important: The song above is NOT stored on the Chordie server. The original song is hosted at www.guitaretab.com. Chordie works as a search engine and provides on-the-fly formatting. Chordie does not index songs against artists'/composers' will. To remove this song please click here.

This song is displayed as text-only. Transposing and tuning is only available for chordpro-songs.

Login - add to songbook

Rating click stars to rate

Layout
Accuracy

SHARE PAGE  




You need to log in to post comments