Guitar Tabs, Chords and Lyrics


The Gutterati   Fratellis



----------------------------------------------------------------------------
			  The Gutterati - The Fratellis
----------------------------------------------------------------------------
     This site needed a bass tab for this song..So, here it is. I'm confident
most of this is correct, except for the iterlude, there's a few rough spots that need reworking. 


Tabbed By : astro0930
e-mail: devils38matt@yahoo.com

Tuning: Standard

 |Verse| (Comes in at :16)
  Repeat 6x
G|--------0------|--------2-00----|
D|-0-0-00---22-0-|-0-0-00------0--|
A|---------------|----------------|
E|---------------|----------------|

 |Chorus|
  Repeat 2x
G|---------0-0-0-0-|---------2-0------|
D|-0-0-0-0---------|-0-0-0-0-----4-2--|
A|-----------------|------------------|
E|-----------------|------------------|

 Repeat Verse
 Repeat Chorus x2 

 |Interlude|

G|-0~~-0~~-|-----0-1-2-1-0---|---------------|
D|---------|-0-4-----------4-|-0~-0~-2-2-2-2-|
A|---------|-----------------|---------------|
E|---------|-----------------|---------------|

 Repeat Chorus until the end. 

 End on:

G|-------|
D|-0~~~--|
A|-------|
E|-------|




| /  slide up
| \  slide down
| h  hammer-on
| p  pull-off
| ~  vibrato
| +  harmonic
| x  Mute note
===============================================================================


Important: The song above is NOT stored on the Chordie server. The original song is hosted at www.guitaretab.com. Chordie works as a search engine and provides on-the-fly formatting. Chordie does not index songs against artists'/composers' will. To remove this song please click here.

This song is displayed as text-only. Transposing and tuning is only available for chordpro-songs.

Login - add to songbook

Rating click stars to rate

Layout
Accuracy

SHARE PAGE  




You need to log in to post comments