Chordie logo

So This Is Great Britain   Holloways



Band-The holloways
Song-So This is Great Britain
Album-So This is Great Britain
Email-Greenday_rhcp2002@yahoo.co.uk
Tabbed-Greenday2003

Ok-well this is defo not perfect but its a start, Comment/CORRECTIONS welcome
Listen to track for timing and strumming

Intro
|------------------|
|------------------|
|-1/4-4-3-4-6-6-4~-|
|-------------6-4~-|
|------------------|
|------------------|

|--/h-|
|--/h-|
|-4/h-|
|-4/h-|
|-2/h-|
|-----|Slide with d harmoniocs=listen

Lead-??
|-------------------------------------|
|-------7-------7--77---7-----------2-|
|-4-4-7--7-4-4-7-7---77--7-5-7-5-4~-4-|
|-----------------------------------4-|
|-----------------------------------2-|
|-------------------------------------|


Verse
|-2---0---5---2---2~-|
|-3---0---5---3---3~-|
|-4---0---4---4---4~-|
|-4---2---5---4---4~-|
|-2---2---5---2---2~-|
|-----0---3----------|x2

Chorus
|-0---2---0----3----2-|
|-0---3---0----2--2-3-|
|-0---4---0----4--3-4-|
|-2---4---2----4--4-4-|
|-2---2---2----2--4-2-|
|-0-------0-------2---|x1

Lead-??
|-----------------------------------|
|------------7---------7--77------2-|
|-4-6-7-4-4-7--7-4-4--7-7---77-4b-4-|
|---------------------------------4-|
|---------------------------------2-|
|-----------------------------------|x1


repeat Verse

Chorus2
|-0---2---0---3---2---3---2-|
|-0---3---0---2-2-3-2-2-2-3-|
|-0---4---0---4-3-4-3-4-3-4-|
|-2---4---2---4-4-4-4-4-4-4-|
|-2---2---2---2-4-2-4-2-4-2-|
|-0-------0-----2---2---2---|x1


Solo-General idea
|-1414-12-1414-12-1414-12-1414-12-14141414-16-141414-15-|
|-1414-12-1414-12-1414-12-1414-12-14141414-16-141414-15-|
|-------------------------------------------------------|
|-------------------------------------------------------|
|-------------------------------------------------------|
|-------------------------------------------------------|x1

sol cont
|-1515-1414-1212-1515-1414-1212-14-12-10-12-10-8-7-5-|
|-1515-1414-1212-1515-1414-1212-14-12-10-12-10-8-7-5-|
|----------------------------------------------------|
|----------------------------------------------------|
|----------------------------------------------------|
|----------------------------------------------------|x1

solo end
|-------------|
|-------------|
|-------------|

|-44-33-22----|
|----------22-|
|-------------|x4

Also b#
|-4hxxxxxxxxxxxxxxx---|
|-4hxxxxxxxxxxxxxxx---|
|-4hxxxxxxxxxxxxxxx---|
|-4hxxxxxxxxxxxxxxx---|
|-------------------/-|
|---------------------|x1 (violin)

outro solo
|-------------------------------------------------------|
|-------------------------------------------------------|
|--------------------------------------------------4--4-|
|------------2-444t-444t-2-----------------2-444444--4--|
|-222-4---2-4--------------4-2-222-4---2-4--------------|
|-------2----------------------------2------------------|x2

Chorus 2 And ur finished



Important: The song above is NOT stored on the Chordie server. The original song is hosted at www.guitaretab.com. Chordie works as a search engine and provides on-the-fly formatting. Chordie does not index songs against artists/composers will. To remove this song please click here.

This song is displayed as text-only. Transposing and tuning is only available for chordpro-songs.

Login - add to songbook

Rating click stars to rate

Layout
Accuracy

SHARE PAGE  

You need to log in to post comments