Sea Of Love

Honeydrippers

 GBm
 That's the day.....I knew you were my pet
 C/FA/Am
 I want to tell you...how much I love you
G A/Am G C, G

Other verses keep the same chords

Chorus:

Come with me......to the sea
 DCDC
     of.......love........  
 BmD
Solo:
The chords for the solo are the same as the verses, just raised one semi-tone.(i.e. D
D#, Bm becomes Cm, etc.)

Listen to the original track for the timings. Played with a slide?

Bends and slides will do, but use a slide if you wish.

"I want to tell you...oh, how much, I love you...."

|------10-*--------10-*----10-/12---15-15-15-|
|----12----------12--------------------------|
|12----------12------------------------------|
|--------------------------------------------| Pre Solo (Strings bit)
|--------------------------------------------|
|--------------------------------------------|

S
|---------------------------------------------------------|
|---------------------------------------------------------|
|---------------13/15--17~~~17--\15-13-12---13-12--/15-13-|
|?--13b15--13---------------------------------------------|
|---------------------------------------------------------|
|---------------------------------------------------------|

B L.S. S L.S.

|--------------------------------------------------------------|
|--------------------------------14/16---16-\13--11-13-/15--11-|
|13-12-10-12-13-/15~~-15-\10-----------------------------------|
|--------------------------------------------------------------|
|--------------------------------------------------------------|
|--------------------------------------------------------------|

S L.S. S S

|------------------------------------------------|
|14-13-11----------------------------------------|
|---------13--------12-13\12\10------------------|
|-----------13---13------------------13B15R13~~~-|
|---------------------------------15-------------|
|------------------------------------------------|

S S B R

|16-*-15-*-6H8P6-|
|----------------|
|----------------|
|----------------| Ending String Bit
|----------------|
|----------------|

H P

"Come with me....."
The chords from the verses and choruses just repeat from here on, one semi-tone higher, of course.

? - At this point just before the solo, it sounds as if Jimmy Page/Jeff
Beck slides to the thirteenth fret, and back down, fairly quickly.

Enjoy.

http://www.youtube.com/watch?v=UpgYxZJwAHI&feature=related
http://en.wikipedia.org/wiki/The_Honeydrippers
http://allmusic.com/cg/amg.dll?p=amg&sql=11:fud7yl3jxpmb
Couldn't find an official website, but that should be enough proof.


Bm C C/F D G
variations - click chord images
Transpose chords:
Tuning:
Cool service:
View: Size:
A  A  A
Rating:
Layout:
  • Currently 1.8/5 Stars.
  • 1
  • 2
  • 3
  • 4
  • 5
 
Accuracy:
  • Currently 3.2/5 Stars.
  • 1
  • 2
  • 3
  • 4
  • 5
 
click stars to rate
Chordie recommends:
Learn to play guitar with video-based, online guitar lessons at JamPlay.com
Songbook:
Login to add this song to your songbook
Support the artist
Preview/buy this song
MSN Music
Why this non-profit ad?

 
login to add comments/video/corrections