Disengage

Honorary Title

|----3----------------3------------|

|----3----------------3------------|
|----0----------0-----0------------|
|----0----------------0------------|
|----2--0-h2-2h3------2--3-2-0h2p0-|
|--3-3-3------------3-3-3----------|
|----3----------------3-------------|
|----3----------------3-------------|
|----0----------0-----0-------------|
|----0----------------0-2/4-2-0h2p0-|
|----2--0-h2-2h3------2-------------|
|--3-3-3------------3-3-------------|
|----3----------------3333-----3333-----3333-----3333-----3333---0--|
|----0----------------3333-----3333-----3333-----3333-----3333---0--|
|----0----------0-----0000-----0000-----0000-----0000-----0000---0--|
|----0----------------0000-----2222-----0000-----2222-----0000---2--| etc.
|----2--0-h2-2h3------2222-0-3-3333-0---2222-0-3-3333-0---2222---2--|
|--3-3-3------------3-3333------------3-3333------------3-3333-0-0--|

 GCadd9GEm
    So    you       regret              the last five years of your life with me. .

 AmCG
 Don't you think that I feel the same way too.

 AmCG
 Don't you think that I feel the same way too.

|----3----------------3------------|
|----3----------------3------------|
|----0----------0-----0------------|
|----0----------------0------------|
|----2--0-h2-2h3------2--3-2-0h2p0-|
|--3-3-3------------3-3-3----------|


Verse : Just G and Cadd9

Disengage your eyes
At least one moment in time
And soon you will know
Trace the lines on my face
Until you are underneath
It all starts real slow
Walking sleepless through these streets
I don't understand a thing you mean
This relationship is based on what trails across the CD case
And it will all soon come to an end

 EmAmC
But if you don't pick up the phone, you will regret it

|--------------|
|--------------|
|--------------|
|--------------|
|-----3-2-0----|
|----------3---|


 EmAmC
I've said it before, but this time I mean it

CHORUS

 GDEmCGD
 You, you keep telling me that you regret
 EmC
All the things that we

 GDEmC
 have tortured you, that I'm willing to admit

 GD
 Guilt-ridden for those years

 EmC
 Trying to forget,

then. .

|----3----------------3------------|
|----3----------------3------------|
|----0----------0-----0------------|
|----0----------------0------------|
|----2--0-h2-2h3------2--3-2-0h2p0-|
|--3-3-3------------3-3-3----------|


from now on. . .

|----3----------------3-------------|
|----3----------------3-------------|
|----0----------0-----0-------------|
|----0----------------0-2/4-2-0h2p0-|
|----2--0-h2-2h3------2-------------|
|--3-3-3------------3-3-------------|


from now on. . .

Second verse

verse

|----3----------------3------------|
|----3----------------3------------|
|----0----------0-----0------------|
|----0----------------0------------|
|----2--0-h2-2h3------2--3-2-0h2p0-|
|--3-3-3------------3-3-3----------|


I met her at a show
Her dress was stained and her eyes had a glow
There were no lines to trace on her face
But I will make my way underneath
I'll just start real slow

CHORUS

 EmAmC
But if you don't pick up the phone, you will regret it

(then right after C play this)

|--------------|
|--------------|
|--------------|
|--------------|
|-----3-2-0----|
|----------3---|


 EmAmC
I've said it before, but this time I mean it

 GDEmCGD
 You, you keep telling me that you regret
 EmC
All the things that we've done

 GDEmC
 I've tortured you, that I'm willing to admit

 GD
 Guilt-ridden for those years

 EmC
 Trying to forget,

(then)

|----3----------------3------------|
|----3----------------3------------|
|----0----------0-----0------------|
|----0----------------0------------|
|----2--0-h2-2h3------2--3-2-0h2p0-|
|--3-3-3------------3-3-3----------|


from now on. . .

|----3----------------3-------------|
|----3----------------3-------------|
|----0----------0-----0-------------|
|----0----------------0-2/4-2-0h2p0-|
|----2--0-h2-2h3------2-------------|
|--3-3-3------------3-3-------------|


from now on. . .

BRIDGE

 AmCG
     From now on, From now on

 AmCG
   I've said it before and this time I, I mean it

 AmCG
Cause if you don't pick up the phone you will regret it

 AmCG
I wanna die, I wanna die, with you.


Am C Cadd9 D Em G
variations - click chord images
Transpose chords:
Tuning:
Cool service:
View: Size:
A  A  A
Rating:
Layout:
  • Currently 2.6/5 Stars.
  • 1
  • 2
  • 3
  • 4
  • 5
 
Accuracy:
  • Currently 3.3/5 Stars.
  • 1
  • 2
  • 3
  • 4
  • 5
 
click stars to rate
Chordie recommends:
Get acoustic guitar lessons and electric guitar lessons at JamPlay.com
Songbook:
Login to add this song to your songbook
Support the artist
Preview/buy this song
MSN Music
Why this non-profit ad?

 
login to add comments/video/corrections