eToCache5 = ""; ?> Crossing The Rubicon by Human Abstract - guitar chords, guitar tabs and lyrics - chordie

Crossing The Rubicon

Human Abstract

Corrections to: Kill.the_failures@live.ca

Not complete, but some parts of the solo.
may not be 100% but sounds alright.

[]---------------------------------------[]
[]-----------------17~-19-20-22b24-22-20-[]
[]---------16h17h19----------------------[]
[]-16h17h19------------------------------[]
[]---------------------------------------[]
[]---------------------------------------[]


Sweep picking.

[]-19-15------15-19-15------15-19-15------15-19-15------15-[]
[]------17--17--------17--17--------17--17--------17--17---[]
[]--------16------------16------------16------------16-----[]
[]---------------------------------------------------------[]
[]---------------------------------------------------------[]
[]---------------------------------------------------------[]
[]-17-14------14-17-14------14-17-14------14-17-14------14-[]
[]------15--15--------15--15--------15--15--------15--15---[]
[]--------14------------14------------14------------14-----[]
[]---------------------------------------------------------[]
[]---------------------------------------------------------[]
[]---------------------------------------------------------[]
[]-15-12------12-15-12------12-15-12---------------------12-[]
[]------13--13--------13--13--------13-----------------13---[]
[]--------12------------12------------12-------------12-----[]
[]--------------------------------------14---------14-------[]
[]----------------------------------------15-12-15----------[]
[]----------------------------------------------------------[]
[]-15-14-12-14-12--12-----------------[]  <-Not sure about that part.
[]---------------15--15-13-12-13-12---[]
[]---------------------------------14-[]
[]------------------------------------[]
[]------------------------------------[]
[]------------------------------------[]


Finger positioning for second sweep picking part.
Index finger:a
Middle finger:b
Ring finger:c
Pinky:d
 aaaaaa
[]|-----------b-7/8-b-------------------b-5/7-b------------------b-3/5-|
[]|--------c-10----10-a---------------b-7-----8-a--------------b-5-----|
[]|------c-9----------9--b----------b-7---------7-b----------b-5-------|
[]|-a--d-9--------------10--d-a-a-d-7-------------9--c-a-a-d-5---------|
[]|-7-10-------------------12-9-5-9-----------------10-7-3-7-----------|
[]|--------------------------------------------------------------------|

|
|
[]|-b------------------------------------------------------------------|[R]
[]|-7-b--------------------a----a--d-----------------------------------|[E]
[]|---7-b---------a---a--d-8--c-8-11-----------------------------------|[P]
[]|-----7-d-a-a-d-7-c-7-10---10----------------------------------------|[E]
[]|-------9-5/6-9---9--------------------------------------------------|[A]
[]|--------------------------------------------------------------------|[T]


Thats the sweeping parts of the solo.
sorry for not getting the rest.
I'll try to get it soon.
Tell me what you think.
For requests email to.
Kill.the_failures@live.ca











A E
variations - click chord images
Transpose chords:
Tuning:
Cool service:
View: Size:
A  A  A
Rating:
Layout:
  • Currently 0/5 Stars.
  • 1
  • 2
  • 3
  • 4
  • 5
 
Accuracy:
  • Currently 0/5 Stars.
  • 1
  • 2
  • 3
  • 4
  • 5
 
click stars to rate
Chordie recommends:
Learn to play guitar with video-based, online guitar lessons at JamPlay.com
Songbook:
Login to add this song to your songbook
Support the artist
Preview/buy this song
MSN Music
Why this non-profit ad?

 
login to add comments/video/corrections