Guitar Tabs, Chords and Lyrics


Love You Much Better  Hush Sound

-------------------------------------------------------------------------------



-------------------------------------------------------------------------------

[C]Why do you sing to [D]everybody but [G7]me?
[C]Why do I let it go [F]on? You know that
[Fm]You've got [Bb7]such a [Em]music box [A7]song
[D7]In my head [G7]all day [C]long
[C]You fell for a girl with [D]wild [G7]eyes
[C]Dressed in satin and l[F]ace. Oh, but
[Fm]She's just an [Bb7]empty [Em]diamond mi[A7]ne
With a [D7]moan a[G7]cross her [C]face.
[Am]I can love you much [C]better
[G]If you can’t see it you’re [F]blind
[Am]I can love you much [C]better
Oh, [F]y’know some day I’m gonna [G]make you mine
[C]Lala lalala[F]la, [Fm]La lala [C]la (x2)
[C]You are the day dream [D]in my [G7]eyes
[C]There whenever I wake [F]up
But the [Fm]colors [Bb7]never [Em]crysta[A7]llized
And [D7]I never[G7] get eno[C]ugh
[C]Why do you kiss every[D]body but [G7]me
[C]I just sit back and [F]watch, oh but
[Fm]One day [Bb7]soon I’m gonna [Em]grab you by the [A7]collar
And [D7]kiss yo[G7]u all I [C]want
[Am]I can love you much [C]better
[G]If you can’t see it you’re [F]blind
[Am]I can love you much [C]better
Oh, [G]y’know some day I’m gonna [F]make you mine
[Am]I can love you much [C]better
[G]If you can’t see it you’re [F]blind
[Am]I can love you much [C]better
Oh, [F]y’know some day I’m gonna [G]make you mine
[C]Lala lalala[F]la, [Fm]La lala [C]la (x2)
Guitar Solo:

E|-----------------|-----------------|-0-0-0-0---------|-----------------|
B|-1---1---1---1---|-3p1-3b5---------|---------3---1---|-----------------|
G|-----------------|-----------------|-----------------|-2---------------|
D|-----------------|-----------------|-----------------|-----------------|
A|-----------------|-----------------|-----------------|-----------------|
E|-----------------|-----------------|-----------------|-----------------|
E|------------------|-----------------|-----------------|
B|3h4-4-4-4-3---3-1-|-----------------|-----1h3-4-1-3-1-|
G|------------------|-----------------|-0h2-------------|
D|------------------|-2h3p2p0-----0h2-|-----------------|
A|------------------|---------0h3-----|-----------------|
E|------------------|-----------------|-----------------|


[Am]I can love you much [C]better
[G]If you can’t see it you’re [F]blind
[Am]I can love you much [C]better
Oh, [G]y’know some day I’m gonna [F]make you mine

[Am]I can love you much [C]better
[G]If you can’t see it you’re [F]blind
[Am]I can love you much [C]better
Oh, [G]y’know some day I’m gonna [F]make you mine
[Am]I can love you, [C]I can love you
[G]I can love you all [F]right
[Am]I can love you much [C]better
[F]And you know some day I’m gonna [G]make you mine.[C]

Important: The song above is NOT stored on the Chordie server. The original song is hosted at www.guitaretab.com. Chordie works as a search engine and provides on-the-fly formatting. Chordie does not index songs against artists'/composers' will. To remove this song please click here.

Text color:
Chord color:
Chord grids: 
Font size:    
Page size: 

A7 Am Bb7 C D D7 Em F Fm G G7
variations - click chord images

Login - add to songbook

Transpose chords

Tuning

Rating click stars to rate

Layout
Accuracy

SHARE PAGE  




You need to log in to post comments