Guitar Tabs, Chords and Lyrics


A Dark Congregation   Hush Sound



I think this is about 95% accurate as the solo has the correct sound
but it is hard to play quick so i think it needs to move to higher
notes on the neck. Anyway let me know what u think and send any improvements u have. :)

Intro
E|--------------------------|
B|--------------------------|
G|----------------------8-8-|
D|-6-6-8-8-11-11-12-12--8-8-|
A|-6-6-8-8-11-11-12-12--6-6-|
D|-6-6-8-8-11-11-12-12------|

Main pattern (0.01)
E|-----------------------------------------------------------------------|
B|-----------------------------------------------------------------------|
G|-8-8-8-8-8-----------8-8-8-8-8-----------8-8-8-8-8---------------------|
D|-8-8-8-8-8--8-11-12--8-8-8-8-8--8-11-12--8-8-8-8-8--8-11-8-6-6-6-9-9-9-|
A|-6-6-6-6-6--8-11-12--6-6-6-6-6--8-11-12--6-6-6-6-6--8-11-8-6-6-6-9-9-9-|
D|------------8-11-12-------------8-11-12-------------8-11-8-6-6-6-9-9-9-|

section2 (0:20)
E|-------------------------------------------------------|   check
B|-------------------------------------------------------|
G|------------------8-8-8-8-8-8-8-8----------------------|
D|-6-6-6-6-6-6-6-6--8-8-8-8-8-8-8-8---4-4-4-4-4-4-4-4--6-|
A|-6-6-6-6-6-6-6-6--6-6-6-6-6-6-6-6---4-4-4-4-4-4-4-4--6-|
D|-6-6-6-6-6-6-6-6--------------------4-4-4-4-4-4-4-4--6-|

Chorus
E|---------|
B|---------|
G|-8-------|  work out strumming pattern   x2
D|-8--4--6-|
A|-6--4--6-|
D|----4--6-|

Bit before solo
E|--------------------|
B|--------------------|
G|--------------------|
D|-6-6-x-x-6--8-11-12-|
A|-6-6-x-x-6--8-11-12-|
D|-6-6-x-x-6--8-11-12-|

Solo (0:50)
E|------------------------------------------------------------------|
B|-----------------------4/6 bend -4--4-----------------------------|
G|---------------3-6-3-6------------6----------------3-6-1---1------|
D|---------4---4---------------------------------4---------4---4----|
A|-6-4-6-4---6---------------------------6-4-6-4---6-------------6--|
D|------------------------------------------------------------------|

E|----------------------------------------------------------------|
B|---------------------6-4----------4-----------------------------|
G|-------------3-6-3-6------------6-----------------------------8-|
D|---------4---------------------------8-6-6--------------------8-|
A|-6-4-6-4---6---------------------------------9-8-8------------6-|
D|----------------------------------------------------8-6-4-6-4---|

main pattern (1:50)

Backing to weird keyboard (1:51)
E|---------------------------------|
B|---------------------------------|
G|---------------------------------|
D|-0-1-1--1-3-3--3-4-4-8-x-8-x-8-8-|
A|-0-1-1--1-3-3--3-4-4-8-x-8-x-8-8-|
D|-0-1-1--1-3-3--3-4-4-8-x-8-x-8-8-|

Backing to normal keyboard solo (2:12)
E|-----------------------------------------------------|
B|-----------------------------------------------------|
G|-----------------4-4-4-4-4-4-4-4---------------------|
D|-1-1-1-1-1-1-1-1-4-4-4-4-4-4-4-4-8-8-8-8-11-11-11-11-|
A|-1-1-1-1-1-1-1-1-2-2-2-2-2-2-2-2-8-8-8-8-11-11-11-11-|
D|-1-1-1-1-1-1-1-1-----------------8-8-8-8-11-11-11-11-|



Important: The song above is NOT stored on the Chordie server. The original song is hosted at www.guitaretab.com. Chordie works as a search engine and provides on-the-fly formatting. Chordie does not index songs against artists/composers will. To remove this song please click here.

This song is displayed as text-only. Transposing and tuning is only available for chordpro-songs.

Login - add to songbook

Rating click stars to rate

Layout
Accuracy

SHARE PAGE  




You need to log in to post comments