Guitar Tabs, Chords and Lyrics


The Artist  Hush Sound

e|---1-----4-----4-----2--2----4------2------1---|


B|---1-----6-----4-----2--2----2------4------2---|


G|---1-----6-----5-----3--3----3------3------3---|

D|---3-----6-----6-----4--4----4------4------3---|
A|---3-----4-----6-----4---------------------1---|
E|---1-----------4-----2-------------------------|
e|--1-4-1--------1-4-1-------------1--------4---------|
B|--------4-2----------4-4-----2------4---------4---2-|
G|----------------------------------------------------|
D|----------------------------------------------------|
A|----------------------------------------------------|
E|----------------------------------------------------|
[Bbm]I know that you're an [C#]artist
G# F# F#add9 F#6th
You're the hardest one to deal with.
[Bbm]Everything that you[C#] conceal
G# F# F#add9 F#6th
Is revealed on your canvas.

[Bbm]You find all of your ugly [C#]meanings
G# F# F#add9 F#6th
In the things I find beautiful.
[Bbm]Do you see the fall is [C#]coming?
G# F# F#add9 F#6th
Come, I’m falling into you.


Chorus:
[C#]You perceive all of the[G#]se things
I'd never have [Bbm]known. Wha-[Fm]oh.
[C#]Love, will you turn out the [G#]lights
‘Cause we're already [Bbm]home… ho[Fm]me.


Pre-Verse: x2

Bbm C# G# F# F#add9 F#6th
e|--1-4-1--------1-4-1-------------1--------4---------|
B|--------4-2----------4-4-----2------4---------4---2-|
G|----------------------------------------------------|
D|----------------------------------------------------|
A|----------------------------------------------------|
E|----------------------------------------------------|



Verse:
[Bbm]You painted me in[C#] pastels
G# F# F#add9 F#6th
Colours that don't tell of any boldness.
[Bbm]‘Cause that's the way you'd love to[C#] see me;
G# F# F#add9 F#6th
So delicate, so weak, so little purpose.

[Bbm]But your eyes are drawn of[C#] charcoal
G# F# F#add9 F#6th
They're black they're so cold, they're so imperfect.
[Bbm]Because they see a slee[C#]ping world
G# F# F#add9 F#6th
Where waking isn't worth it.


Chorus:
[C#]You perceive all of these [G#]things
I'd never have [Bbm]known. Oh-[Fm]oh.
[C#]Love, will you turn out the [G#]lights
‘Cause we're already [Bbm]home… ho[Fm]me.

[Bbm]How______,[Bbm] How_____-oh.
[F#]Can yo[Bbm]u live wit[G#]hout the lies? [Bbm]
[Bbm]Oh_______, [Bbm]oh________, [F#]love
I've had en[Bbm]ough of y[G#]ou tonight.

Chorus:
[C#]All of these t[G#]hings
I'd never have [Bbm]known. Oh-[Fm]oh.
[C#]Love, will you turn out the [G#]lights
‘Cause we're already [Bbm]home… ho[Fm]me.


[C#]You perceive all of these [G#]things
I'd never have [Bbm]known. Oh-[Fm]oh.
[C#]Love, will you turn out the [G#]lights
‘Cause we're already [Bbm]home… ho[Fm]me.

Important: The song above is NOT stored on the Chordie server. The original song is hosted at www.guitaretab.com. Chordie works as a search engine and provides on-the-fly formatting. Chordie does not index songs against artists'/composers' will. To remove this song please click here.

Text color:
Chord color:
Chord grids: 
Font size:    
Page size: 

Bbm C# F# Fm G#
variations - click chord images

Login - add to songbook

Transpose chords

Tuning

Rating click stars to rate

Layout
Accuracy

SHARE PAGE  




You need to log in to post comments