"yes"; ?> As You Cry by Hush Sound - guitar chords, guitar tabs and lyrics - chordie

As You Cry

Hush Sound

 G
 I'm a half-hearted fool
 F
 With a heart that's broke in two
 C
 A quarter and a kiss is all
 GFF#
I should be worth to you   

 G
 I must be the last of my kind
 F
'Cause you treasure me despite all the signs
 C
The love has disappeared and
 G
Darling you shouldn't even try

PRE-CHORUS:
 FC
 After every fight we always wonder
 G
what we're fighting for
 FC
 Beat me up and mark me, yea you
 D
stole me but I am not yours

CHORUS (0:44)
 DF#
 As you cry, I wanna lie
 GF#F
Say I love you so, darling even though I don't
 CA#C
There's no easy way, to ease the pain (Wo-oah)
 DF#
 Roses and the tulips have
 GF#
 Withered away, they had their day
 FCGFF#
 So it's time to say goodnight and goodbye       

 G
 You're so bright that you shine right through
 F
 All the problems that I always try to lay on you
 C
 Won't ya tick me off darling,
 GFF#
Won't ya put some air in this room?   

 G
 I can't believe in what I can't
 F
hold inside of my hand

We'll end up partying and
 C
might decide to mess up the plan
 G
I'd be a liar if I told you that we would work out

PRE-CHORUS

CHORUS

 A#CAA#
 Nobody's singing about you any more
 A#CAA#
 You thought you heard it well you must have heard wrong
 A#CAC
 It's my business and that's alright
 A#C
 Don't you see that...

CHORUS...

SOLO
e|---6-5----5-3-------|
B|-6----6-------7V----|
g|-------7------------|
D|--------------------|
A|--------------------|
E|--------------------|
e|---6-5----3-5-------6-8-6-8-6/8BU(10)-8-6-|
B|-6----6-------7V--------------------------|
g|-------7----------------------------------|
D|------------------------------------------|
A|------------------------------------------|
E|------------------------------------------|
e|---6-5----5-3-6--8BU(10)-|
B|-6----6------------------|
g|-------7-----------------| Amp Feedback
D|-------------------------| BU= bend up to bracketed note
A|-------------------------| V= vibrato
E|-------------------------|				



A A# C D F F# G
variations - click chord images
Transpose chords:
Tuning:
Cool service:
View: Size:
A  A  A
Rating:
Layout:
  • Currently 3.6/5 Stars.
  • 1
  • 2
  • 3
  • 4
  • 5
 
Accuracy:
  • Currently 2.9/5 Stars.
  • 1
  • 2
  • 3
  • 4
  • 5
 
click stars to rate
Chordie recommends:
Learn how to play guitar at JamPlay.com
Songbook:
Login to add this song to your songbook
Support the artist
Preview/buy this song
MSN Music
Why this non-profit ad?

 
login to add comments/video/corrections