Guitar Tabs, Chords and Lyrics


Eagles Wings  Katinas

e-----5-----7--0---0-----0-----------------|


B-2h3--3---7----0---0---3-3----------------|


G----2----9---2---2----2---2---------------|

D--------9------------0--------------------|
A-2-----7----0---5-------------------------|
E------------------------------------------|
[Bm]Here I am wai[E]ting.A[A2]bide in [A/C#m]me    I pr[D]ay.
[Bm]Here I am lon[E]ging.For y[A2]ou [A/C#m]Yeah  [D]
[Bm]Hide me in your l[E]ove Br[A2]ing me[A/C#m] to my kn[D]ees
[Bm]May i know Je[E]sus More and m[A2]ore[A/C#m]      [D]
RIFF
e--7/9--7--7/9--7-------------------|
B-----10-10---10-9-10---------------|


CHORUS
[A2]Come live in m[D/F#m]e all my life [Bm7]Take over  [E]
[A2]Come live in m[D/F#m]e I will Ri[Bm7]se on eag[E]les wi[A2]ngs


V2(same chords in V1)
Beutiful Savior Lord i love to feel your touch
You never forsake me lord you are your always there
Each passing moment it's you that i adore
i love you jesus more and more and more

Important: The song above is NOT stored on the Chordie server. The original song is hosted at www.guitaretab.com. Chordie works as a search engine and provides on-the-fly formatting. Chordie does not index songs against artists/composers will. To remove this song please click here.

Text color:
Chord color:
Chord grids: 
Font size:    
Page size: 

A2 Bm Bm7 D E
variations - click chord images

Login - add to songbook

Transpose chords

Tuning

Rating click stars to rate

Layout
Accuracy

SHARE PAGE  




You need to log in to post comments