Guitar Tabs, Chords and Lyrics


Always Where I Need To Be Acoustic  Kooks

e|--3--3-3--3-3--0-0-0-0-0--0-0--0-0--0-0-0-0--|


B|--x--x-x--x-x--1-1-1-0-0--0-0--0-0--1-1-1-0--| Back to G Chord &


G|--0--0-0--0-0--2-2-2-0-0--0-0--0-0--0-0-0-0--|     Repeat

D|--0--0-0--0-0--2-2-2-0-2--0-2--0-2--2-2-2-0--|
A|--2--0-2--0-2--0-0-0-0-2--0-2--0-2--3-3-3-0--|
E|--3--3-3--3-3--x-x-x-0-0--0-0--0-0--0-0-0-0--|
[G]  Say whatever you [Em]want, I.. I'll never judge you
[G]  Be whoever you [Em]want me to be, oh you know I just don’t [C]care
  You know I just don’t [G]care
Pre-chorus:
C D(v2) Em(v2) D
Cause im always where_____i need to be
C D(v2) Em(v2) D
I always thought, I would end up with you eventually

Chorus:
[G]  Doo doo, doodoo doo doodoo [Em]doo, doo, doodoo doo [C]doodoo
[G]  Doo doo, doodoo doo doodoo [Em]doo, doo.            [C]

Verse 2:
[G]  Be whoever comes [Em]naturally to you, oh it will take you anywhere
[G]  Say whatever comes [Em]into your head, oh you know I just dont [C]care
  You know I just dont [G]care.

Pre-Chorus x1

Chorus x1

Bridge/Solo: (Abit rough, hard to tell whats going on in the strumming parts)
e|-----------------------------------------0--0-0---0--0-0-0-0---|
B|-----------------------------------------1--1-1---1--1-1-1-1---|
G|-----------------------------------------0--0-0---0--0-0-0-0---|
D|-----------------------------------------2--2-2---2--2-2-2-2---|
A|----------------------------2--2-2-2-2---3--3-3---3--3-3-3-3---|
E|-3--0-3---3--0-3---0--0-0---0--0-0-0-0---0--0-0---0--0-0-0-0---|
e|-3-33-33---3--3-3-3-3--|
B|-x-xx-xx---x--x-x-x-x--|
G|-0-00-00---0--0-0-0-0--|
D|-0-00-00---0--0-0-0-0--|
A|-2-00-22---2--0-2-2-2--|
E|-3-33-33---3--3-3-3-3--|
e|---------------------------------------------------------------0--|
B|---------------------------------------------------------------0--|
G|---------------------------------------------------------------0--|
D|---------------------------------------------------------------2--|
A|----------------5----------2--2------5-5--------5--5------5----2--|
E|-3--0-3--0-3--0---3---0--0------0--0-------3--3------3--3---3--0--|


Verse 3: (Straight from Bridge/Solo)
You know i Just dont [C]care
You know i just dont [G]care

Pre-chorus x1

Chorus x2 then finish

=====================
End. Comments Welcome
=====================

Important: The song above is NOT stored on the Chordie server. The original song is hosted at www.guitaretab.com. Chordie works as a search engine and provides on-the-fly formatting. Chordie does not index songs against artists'/composers' will. To remove this song please click here.

Text color:
Chord color:
Chord grids: 
Font size:    
Page size: 

C Em G
variations - click chord images

Login - add to songbook

Transpose chords

Tuning

Rating click stars to rate

Layout
Accuracy

SHARE PAGE  




You need to log in to post comments