Sofa Song Acoustic

Kooks

----------------------------

-----------------------------
-----------------------------

 G#7sus4Bmaj7
      The city freezes for
E(v2) Bmaj7 D#m
I just realised I don't like you
 G#7sus4Bmaj7
      Me and my girl
E(v2) Bmaj7 D#m
Are going out for some air
 G#7sus4Bmaj7
      And I will do my best
E(v2) Bmaj7 D#m
Just to get under her dress
 G#7sus4Bmaj7
      And catch you out if I can
 EBmaj7D#m
      On the other side of my sofa

------------------------------


Chorus -

 G#7sus4Bmaj7F#C#7
                     Won't you come on over   

At the side of my sofa
 G#7sus4Bmaj7F#C#7
                     Oh won't you come on over   

------------------------------


Solo (i know this is not 100% correct, i improvised on some bits)

e|---------------9~~~~~~~~----------------------------|
B|--4--7--9-7-9--11b12~~~~--9---7h9p7-4-7-4-2-0-2/4---|
G|----------------------------------------------------|
D|----------------------------------------------------|
A|----------------------------------------------------|
E|----------------------------------------------------|
e|----------------------------------------------------|
B|--5p4-----------------------------------------------|
G|------4-6-4---4-------4--4-4-4-4/6-6-6-6/8--8h9p8---|
D|------------6---6-4-6----6-6-6-6/8-8-8-8/9----------|
A|----------------------------------------------------|
E|----------------------------------------------------|


2nd Verse -

 G#7sus4Bmaj7
      The city heated up
E(v2) Bmaj7 D#m
It got blurry cause I'd had enough
 G#7sus4Bmaj7
      And he tried to take your soul
 EBmaj7D#m
      But didn't realise you keep it in a different hole

-------------------------------


2nd Chorus -

 G#7sus4Bmaj7E
                     Won't you come on over
 Bmaj7D#m
                    At the side of my sofa
 G#7sus4Bmaj7EBmaj7D#m
                     Oh won't you come on over         

--------------------------------


Bridge: (played raggae style until 'E' chord)
G#m7 G#m D#m(v2)
So here he comes, a man with a

loaded gun, I don't know if he
G#m F#(v2)
Wants my soul or my cash flow
 G#mG#m7G#mG#m7
        So here he comes, a man with a
F#(v2)
A loaded gun I don't know if he
G#m G#m7 D#m(v2) E A
Wants my girl's heart or her pearls

--------------------------------


Outro -
 G#7sus4E
I s'pose I don't know           
 G#7sus4E
I s'pose I don't know           
 G#7sus4E
I s'pose I don't know           
 C#mF#
I s'pose I don't knoooooow
 G#7sus4
I s'pose I don't know

---------------------------------

End - comments welcome
sorry if its a quite a long tab
----------------------------------				



Bmaj7 C#7 C#m D#m E F# G#7sus4 G#m G#m7
variations - click chord images
Transpose chords:
Tuning:
Cool service:
View: Size:
A  A  A
Rating:
Layout:
  • Currently 3.5/5 Stars.
  • 1
  • 2
  • 3
  • 4
  • 5
 
Accuracy:
  • Currently 3.3/5 Stars.
  • 1
  • 2
  • 3
  • 4
  • 5
 
click stars to rate
Chordie recommends:
Learn how to play guitar at JamPlay.com
Songbook:
Login to add this song to your songbook
Support the artist
Preview/buy this song
MSN Music
Why this non-profit ad?

 
login to add comments/video/corrections